Vines - Get Free Chords & Tabs

 

Get Free Chords & Tabs

Vines Chords & Tabs

Version: 11 Type: Tab 0 ratings
1 star 2 stars 3 stars 4 stars 5 stars
comments

Get Free Tab

   
The Vines
Get Free
Highly Evolved LP

  I'm just a kid so i apologize for any mistakes.  Here's how I play and sing
"Get Free" from the best band in the world.

   INTRO                                     C5   G5    repeat twice
e]----------------------------------------------------------------
b]----------------------------------------------------------------
g]-------------------------------------------5-5------------------
d]-------------------------------------------5-5--5-5-5-----------
a]-3/5-5-5-5-5b/3/5-5-5-5-5b/3/5-5-5-5-5b/3--3-3--5-5-5-----------
e]------------------------------------------------3-3-3-----------

      VERSE:
    D5                              C5   D5
e]----------------------------------------------------------------
b]----------------------------------------------------------------
g]--(7)-(7)-(7)-(7)-(7)-(7)-(7)-(7)-(5)/(7)-(7)-(7)-(7)-(7)-(7)-(7)
d]--(7)-(7)-(7)-(7)-(7)-(7)-(7)-(7)-(5)/(7)-(7)-(7)-(7)-(7)-(7)-(7)
a]--(5)-(5)-(5)-(5)-(5)-(5)-(5)-(5)-(3)/(5)-(5)-(5)-(5)-(5)-(5)-(5)
e]-------------------------------------/--------------------------    
    i'm     gonna     get       free
        
        C5   D5                             G5      C5 G5 repeat twice
e]----------------------------------------------------------------
b]----------------------------------------------------------------
g]--(7)-(5)/(7)-(7)-(7)-(7)-(7)-(7)-(7)-(7)---------5-5-----------
d]--(7)-(5)/(7)-(7)-(7)-(7)-(7)-(7)-(7)-(7)-5-5-5-5-5-5-5-5-5-----
a]--(5)-(3)/(5)-(5)-(5)-(5)-(5)-(5)-(5)-(5)-5-5-5-5-3-3-5-5-5-----
e]------------------------------------------3-3-3-3-----3-3-3-----
                                            ride into the sun
[ Tab from: http://www.guitartabs.cc/tabs/v/vines/get_free_tab_ver_11.html ]
CHORUS:                             repeat four times
e]--------------------------------------
b]--------------------------------------
g]--5/7---5/7---5/7------------3-3------
d]--5/7---5/7---5/7----5-5-5---3-3--3-3-
a]--3/5---3/5---3/5----5-5-5---1-1--3-3-
e]---------------------3-3-3--------1-3-
                       
SOLO:                                                   repeat twice
e]--------------------------------------------------------
b]--------------------------------------------------------
g]-----5--7-7--5-----5--7-7--5-----5--7-7--5--8b--7-5-----
d]--7-------------7-------------7----------------------7--
a]--7-------------7-------------7-------------------------
e]--5-------------5-------------5-------------------------

BRIDGE:

e]--------------------------------------------------------
b]--------------------------------------------------------
g]----------------3-3--3-3-3-3----------------7-7--7-7-7-7
d]--5-5--5-5-5-5--3-3--3-3-3-3--5-5--5-5-5-5--7-7--7-7-7-7
a]--5-5--5-5-5-5--1-1--1-1-1-1--5-5--5-5-5-5--5-5--5-5-5-5
e]--3-3--3-3-3-3----------------3-3--3-3-3-3--------------
 when it's breedin  time       look into your mind away

VERSE
I'm gonna get free
I'm gonna get free
I'm gonna get free
Ride into the sun

She never loved me
She never loved me
She never loved me
Why should anyone

CHORUS
(Come here, Come here, Come here) I'll take a photo for ya
(Come here, Come here, Come here) Drive you 'round the corna
(Come here, Come here, Come here) You know you really oughta
(Come here, Come here, Come here) Move outta California

(solo)

VERSE
Get (Get) Me (Me) Far (Far)
When I've a lot to lose
Save (Save) Me (Me) From (From)
Heeerrrrrrreeeeeeeeeee

CHORUS

BRIDGE
When it's breeding tiiiimmmee
Look into your mind awaaayyyyyyy

VERSE  (play intro though)

CHORUS
Comments