Vines - Get Free Chords & Tabs

 

Get Free Chords & Tabs

Vines Chords & Tabs

Version: 4 Type: Bass Tab 0 ratings
1 star 2 stars 3 stars 4 stars 5 stars
comments

Get Free Bass Tab

   
Get Free - Vines

Intro (guitar with no bass, then play)
G|------------------|
D|----3333-5555-----|   x1
A|3333--------------|
E|------------------|

Verse (no singing then : i wanna get free...)
G|----------------------------|
D|-00000-00000-00000-33335555-|   x3
A|3-----3-----3-----3---------|
E|----------------------------|

Chorus (come in come in come in...)
G|-------------|
D|------5556633|   x4
A|353535-------|
E|-------------|

Verse (no singing then : yea yea me me...)
G|----------------------------|
D|-00000-00000-00000-33335555-|   x4
A|3-----3-----3-----3---------|
E|----------------------------|
[ Tab from: http://www.guitartabs.cc/tabs/v/vines/get_free_btab_ver_4.html ]
Chorus (come in come in come in...)
G|-------------|
D|------5556633|   x4
A|353535-------|
E|-------------|

Verse II (when its bleeding time...)
G|----------------------------------------|
D|86--86--53--5356--86--86--555333-555333-|   x1
A|--6---6---3---------6---6---------------|
E|----------------------------------------|

Intro (guitar with no bass then play)
G|--------------|
D|----3333-5555-|  x1
A|3333----------|
E|--------------|

Verse (she never loved me....)
G|----------------------------|
D|-00000-00000-00000-33335555-|   x1
A|3-----3-----3-----3---------|
E|----------------------------|

Chorus (come in come in come in...)
G|--------------|
D|------5556633-|   x3
A|353535--------|
E|--------------|

End
G|-------|
D|-------|   x1
A|353535~|
E|-------|

~ = let ring

I think this is right. happy bass-ing
Comments