Vines - Get Free Chords & Tabs

 

Get Free Chords & Tabs

Vines Chords & Tabs

Version: 3 Type: Bass Tab 0 ratings
1 star 2 stars 3 stars 4 stars 5 stars
comments

Get Free Bass Tab

   
#----------------------------------PLEASE NOTE---------------------------------#
#This file is the author's own work and represents their interpretation of the #
#song. Do whatever you want with it, but give credit to Hemme Luttjeboer (GW)  #
#------------------------------------------------------------------------------#
                                   ________
                            ______/GET FREE\________
                       ____/As recorded by The Vines\____
                      /From the 2002 Album HIGHLY EVOLVED\


Music by Craig Nicholls
Arranged by Hemme Luttjeboer (GW Mag.)
Transcribed by Juan Carlos Almodovar (ASCII PowerTab Format)

Tuning:(D A D G) - 'bass'
Bass is in Dropped-D Tuning

 Intro
 4/4 Q=139
|---------|---------|-----------------|------------------|
|---------|---------|---------------3-|-------2/5-5-5----|
|---------|---------|-5-5-5-5-6-3-5---|-3-3-3---------3--|
|---------|---------|-----------------|------------------|


|----------------|----------------|-----------------|-------------------|
|----------------|----------------|---------------3-|-------------------|
|-5-5-5-5-5-5-5-0|/5-5-5-5-5-5-5-0|/5-5-5-5-5-3-5---|-3--3-5/10-10-10-0-|
|----------------|----------------|-----------------|-------------------|


 1st and 3rd Verses
  $
|----------------|----------------|-----------------|-------------------|
|----------------|----------------|---------------3-|-------------------|
|-5-5-5-5-5-5-5-0|/5-5-5-5-5-5-5-0|/5-5-5-5-5-3-5---|-3--3-5/10-10-10-0-|
|----------------|----------------|-----------------|-------------------|


|----------------|----------------|-----------------|-------------------|
|----------------|----------------|---------------3-|-------------------|
|-5-5-5-5-5-5-5-0|/5-5-5-5-5-5-5-0|/5-5-5-5-5-3-5---|-3--3-5/10-10-10-0-|
|----------------|----------------|-----------------|-------------------|


 Chorus
|---------------|----------------|---------------|----------------|
|---------------|--5-5-5-6-6-3-3-|---------------|--5-5-5-6-6-3-3-|
|-3-5--3-5--3-5-|----------------|-3-5--3-5--3-5-|----------------|
|---------------|----------------|---------------|----------------|


                                            To Coda
|---------------|----------------|-----------------|-----||
|---------------|--5-5-5-6-6-3-3-|-----------------|-----||
|-3-5--3-5--3-5-|----------------|-3-5-0-3-5-0-3-5-|-----||
|---------------|----------------|-----------------|-----||
[ Tab from: http://www.guitartabs.cc/tabs/v/vines/get_free_btab_ver_3.html ]
   Interlude								X2
||---------------|---------------|--------------|-----------------------||
||o--------------|---------------|--------------|----------------------o||
||o--------------|---------------|--------------|----------------------o||
||--0-0-(0)------|-0-0---(0)-0---|-0-0-(0)------|-10-10-10/7-(7)/5-3----||

 2nd Verse
|----------------|----------------|-----------------|-------------------|
|----------------|----------------|---------------3-|-------------------|
|-5-5-5-5-5-5-5-0|/5-5-5-5-5-5-5-0|/5-5-5-5-5-3-5---|-3--3-5/10-10-10-0-|
|----------------|----------------|-----------------|-------------------|


|----------------|----------------|-----------------|-------------------|
|----------------|----------------|---------------3-|-------------------|
|-5-5-5-5-5-5-5-0|/5-5-5-5-5-5-5-0|/5-5-5-5-5-3-5---|-3--3-5/10-10-10-0-|
|----------------|----------------|-----------------|-------------------|


 Chorus
|---------------|----------------|---------------|----------------|
|---------------|--5-5-5-6-6-3-3-|---------------|--5-5-5-6-6-3-3-|
|-3-5--3-5--3-5-|----------------|-3-5--3-5--3-5-|----------------|
|---------------|----------------|---------------|----------------|


|---------------|----------------|-----------------|-----||
|---------------|--5-5-5-6-6-3-3-|-----------------|-----||
|-3-5--3-5--3-5-|----------------|-3-5-0-3-5-0-3-5-|-----||
|---------------|----------------|-----------------|-----||


 Bridge
|-----------------|-----------------|-----------------|------------------------|
|-8-8-6---8-6---5-|-5-5-3---5-3-5-7-|-8-8-6---8-6---7-|-7-7-5h7-7-5h7-7-5h7-7--|
|-------8-----8---|-------5---------|-------8-----8---|------------------------|
|-----------------|-----------------|-----------------|------------------------|


                      Drop Your Bass (Free Time)
        D.S. al Coda   &
|-------------------||---------|---------|-----*|
|-7-7-5h7-7-7-7-7-7-||---------|---------|-----*|
|-------------------||---------|---------|-----*|
|-------------------||---------|---------|-----*|


Tablature Legend
----------------
 h   - hammer-on
 p   - pull-off
 b   - bend
 r   - bend release (if no number after the r, then release immediately)
 /\  - slide into or out of (from/to "nowhere")
 ~   - vibrato

***********************************************************************************
* Made using Power Tab Editor by Brad Larsen - http://powertab.guitarnetwork.org  *
* 	   GO TO THAT WEBSITE AND DOWNLOAD POWERTAB IT'S FREE & ITS GREAT!        *
***********************************************************************************
Comments