Vines - Get Free Chords & Tabs

 

Get Free Chords & Tabs

Vines Chords & Tabs

Version: 2 Type: Bass Tab 0 ratings
1 star 2 stars 3 stars 4 stars 5 stars
comments

Get Free Bass Tab

/\ = SLIDE
Tabbed By: Jahrome Reuangsettakal
Not sure if this is the best tab, but when i play it, it sounds correct

Intro: 0:03
G|-----------------------
D|------------3/5-5-5555-
A|33333333-33------------
E|-----------------------

Verse: 0:07
G|----------------------------------------------
D|--00000000---00000000---00000000---3/5-5-5555-   3x
A|3----------3----------3----------3------------
E|----------------------------------------------
[ Tab from: http://www.guitartabs.cc/tabs/v/vines/get_free_btab_ver_2.html ]
Chorus: 0:27
G|-----------------------
D|-------------555-66-33-
A|-3-5-3-5-3-5-----------  4x
E|-----------------------

Solo: 0:42
G|----5-7-5-----5-7-5-----5-7-5-7h9p7-5-----
D|--------------------------------------5---
A|0-5-------0-5-------0-5-----------------5-  2x
E|------------------------------------------

Verse 2x
Chorus 4x

Bridge: 1:23
G|------------------------------------
D|------------------------------------
A|11111111----------11111111----------
E|---------33333333----------11111111-

Intro
Verse
Chorus 4x

Thats it, I hope its right. I hope you all like it
Comments