Vines - Get Free Chords & Tabs

 

Get Free Chords & Tabs

Vines Chords & Tabs

Version: 1 Type: Bass Tab 0 ratings
1 star 2 stars 3 stars 4 stars 5 stars
comments

Get Free Bass Tab

VINES, THE - GET FREE

INTRO:
G|-------------------------|
D|-------------------------|
A|-5-5-5-5-5-5-5\3--3/5----|
E|-------------------------|

Verse:
G|---------------------------------------|
D|---------------------------------------|
A|-5-5-5-5-5-5-5\3--3/5-5-5-5-5-5-5-5\3--|
E|---------------------------------------|

G|-----------------------------------|
D|-----------------------------------|
A|-3/5-5-5-5-5-5-5-5-5--3--3-----3-3-|
E|---------------------------3-3-----|
[ Tab from: http://www.guitartabs.cc/tabs/v/vines/get_free_btab.html ]
Chorus:
G|------------------------------|
D|------------------------------|
A|-3-5--3-5--3-5--------1-1-----|
E|----------------3-3-3-----1-1-|

BRIDE #1: (work on timing)
G|-------------------------------------------|
D|--------------------------------3----------|
A|----------------------------------5-3------|
E|-10-----10--10-----10—10\---5---------5-3\1|
							    	    
BRIDGE #2:
G|---------3----------------------|
D|-3-3-3-3---5-3------------------|
A|---------------3-3-3-3-3-3-3-3--|
E|--------------------------------|


G|---------3-----------------------|
D|-3-3-3-3---5-3-------------------|
A|---------------3-----------------|
E|-----------------5-5-5-5-5-5-5-5-|
Comments