Vines - Fuck The World Chords & Tabs

 

Fuck The World Chords & Tabs

Vines Chords & Tabs

Version: 1 Type: Tab 0 ratings
1 star 2 stars 3 stars 4 stars 5 stars
comments

Fuck The World Tab

#----------------------------------PLEASE NOTE---------------------------------#
#This file is the author's own work and represents their interpretation of the #
#song. You may only use this file for private study, scholarship, or research. #
#------------------------------------------------------------------------------#

Artist: The Vines
Song: Fuck the World
CD:Winning Days 
Track 11  

Standard Tuning: EADGBe 
Arranged for one guitar
b = bend up one semitone 

Intro
E----------------------------------------
B----------------------------------------
G----------------------------------------
D--------------5-5-5-4-3----------------- x4
A--0-3b-0-3b-0---------------------------
E----------------------------------------


Riff 1
E----------------------------------------
B----------------------------------------
G--2-2-2-2-2-2-2-2--5-5-5---------------- x4
D--2-2-2-2-2-2-2-2--5-5-5--4-4-4-4-------
A--0-0-0-0-0-0-0-0--3-3-3--4-4-4-4-------
E--------------------------2-2-2-2-------


Riff 2
E----------------------------------------
B----------------------------------------
G--2------2------5----------------------- x4
D--2------2------5-------4~-------------
A--0------0------3-------4~-------------
E------------------------2~-------------

(Walk the fields and we stare at the ocean ect)

Riff 1
E----------------------------------------
B----------------------------------------
G--2-2-2-2-2-2-2-2--5-5-5---------------- x4
D--2-2-2-2-2-2-2-2--5-5-5--4-4-4-4-------
A--0-0-0-0-0-0-0-0--3-3-3--4-4-4-4-------
E--------------------------2-2-2-2-------


Riff 2
E----------------------------------------
B----------------------------------------
G--2------2------5----------------------- x4
D--2------2------5-------4~-------------
A--0------0------3-------4~-------------
E------------------------2~-------------

[ Tab from: http://www.guitartabs.cc/tabs/v/vines/fuck_the_world_tab.html ]
Bridge
E--------------------------------------------------
B--------------------------------------------------
G--------------------------------------------------
D-------------------------------------------------- x3
A--0-0-0h3b-0h5b-6-5-3-----------------------------
E-----------------------0-0-0h3b-0h5b-6-5-3--------

E--------------------------------------------------
B--------------------------------------------------
G--------------------------------------------------
D--------------------------------------------------
A--0-0-0h3b-0h5b-6-5-3s12-12-12-12-12-12-12-12-12--
E--------------------------------------------------


Riff 1
E----------------------------------------
B----------------------------------------
G--2-2-2-2-2-2-2-2--5-5-5---------------- x4
D--2-2-2-2-2-2-2-2--5-5-5--4-4-4-4-------
A--0-0-0-0-0-0-0-0--3-3-3--4-4-4-4-------
E--------------------------2-2-2-2-------

World
c'mon fuck the world x3


Intro
E----------------------------------------
B----------------------------------------
G----------------------------------------
D--------------5-5-5-4-3----------------- x4
A--0-3b-0-3b-0---------------------------
E----------------------------------------

Walk the fields and we stare at the ocean



Riff 1
E----------------------------------------
B----------------------------------------
G--2-2-2-2-2-2-2-2--5-5-5---------------- x8
D--2-2-2-2-2-2-2-2--5-5-5--4-4-4-4-------
A--0-0-0-0-0-0-0-0--3-3-3--4-4-4-4-------
E--------------------------2-2-2-2-------

 
World
c'mon fuck the world x3


Interlude
E----------------------------------------
B----------------------------------------
G---------------------------------------- x4
D----------------------------4-4-4-4-----
A--0-0-0-0-0-0-0-0-3-3-3-3-3-------------
E----------------------------------------

Fuck the world, don't x4


Riff 1
E----------------------------------------
B----------------------------------------
G--2-2-2-2-2-2-2-2--5-5-5---------------- x8
D--2-2-2-2-2-2-2-2--5-5-5--4-4-4-4-------
A--0-0-0-0-0-0-0-0--3-3-3--4-4-4-4-------
E--------------------------2-2-2-2-------

World
c'mon fuck the world x7
 

Outro
e---------
B---------
G---------
D—-4------ (let final chord ring with last line)
A—-4------
E—-2------

c'mon fuck the world 
Comments