Vines - From The Land (demo) Chords & Tabs

 

From The Land (demo) Chords & Tabs

Vines Chords & Tabs

Version: 1 Type: Chords 0 ratings
1 star 2 stars 3 stars 4 stars 5 stars
comments

From The Land (demo) Chords

   
#----------------------------------PLEASE NOTE---------------------------------#
#This file is the author's own work and represents their interpretation of the #
#song. You may only use this file for private study, scholarship, or research. #
#------------------------------------------------------------------------------#


THE VINES - From The Land  (Demo)

starsailoruk@yahoo.com   

Keyboard intro arranged for guitar
e----------------------------------------------------------|
B--10-12-12-10-9-----------10-12-15--14-12-10--------------|
G--------------------7-9-11--------------------------------|
D----------------------------------------------------------|
A----------------------------------------------------------|
E----------------------------------------------------------|

E   D    G    D   x2


[ Tab from: http://www.guitartabs.cc/tabs/v/vines/from_the_land_demo_crd.html ]
    E                   D          G            D                                                                                    
e--------------------------------------------------------------------|
B--------------------------------------------------------------------|
G--4--4-4-4--4--2-1------------2--2/4----4--2-2-2--------------------|
D-----------------------0--2--4-------------------------4------------|
A--------------------------------------------------------------------|
E--------------------------------------------------------------------|

         Am         C
e-------------------------------------------------------------------|
B-------------------------------------------------------------------|
G--2-4--4/5------7--9--17-17----------------------------------------|
D-------------------------------------------------------------------|
A-------------------------------------------------------------------|
E-------------------------------------------------------------------|


E   D   G   D  x2   With the keyboard bit   and "La-la-las"

Am   C     E 


Tabbed by starsailoruk@yahoo.com
Comments