Vines - Factory Chords & Tabs

 

Factory Chords & Tabs

Vines Chords & Tabs

Version: 1 Type: Bass Tab 0 ratings
1 star 2 stars 3 stars 4 stars 5 stars
comments

Factory Bass Tab

hey hey nestor here the vines song, Factory is sweet on bass here it is on standard tuning       
intro/break
g-----------------'------------ 
d-5-55------5-----'-5----5--5-- 
a------5-7----7-5-'--5-7---7--7
e-----------------'------------ 

verse-p 1                 verse p 2
g----------------'    g-----------------------------------------------------
d-5-55-----5-----' *3 d-------7-5h7p5-4------------------------------2/7-5-- 
a------5-7---7-5-'    a-5-7/9-----------5-5-323232-5-7-5-3-5-3-2-3-5-------7
e----------------'    e----------------------------------------------------- 
 -break- 
verse p3 
g----------------------------------------------------------'
d-------7-5h7p5-4-------------------------5-5-5-5-55555432-'
a-5-7/9-----------5-5-323232-575353232020------------------'
e----------------------------------------------------------' 
[ Tab from: http://www.guitartabs.cc/tabs/v/vines/factory_btab.html ]
chorus 
g--------------------------------------'
d-------------------55------77-7-5---5-'*2
a-7777-5-7-5-33-5/7---7-5-7--------7---'
e--------------------------------------' 
break-
verse-p1,p2,p1,p3
chorus*2
solo part-
g---------------'   '---------797-------''---------------'
d-5-55------5---'*2 '-------7-----7/4---''---------------'
a------55-7---7-'   '-5-7/9-----------5-''-5-5-3-3-2-2---'
e---------------'   '-------------------''-------------5-'
'------------------12-14-12----'
'-----575-------12----------12-'
'---5-----5--10----------------'
'-3----------------------------' 
outro- 
g----------------' '--------------------------' 
d-5-55-----5-----' '-5-55-----5-----7---------'
a------5h7---7p5-' '------5h7---7p5-----------'
e----------------' '-------------------7-5-3~-'

easy mad 2 play, n self explanatory, ne probs email me at mjnestor4@hotmail.com
Comments