Vines - F T W Chords & Tabs

 

F T W Chords & Tabs

Vines Chords & Tabs

Version: 1 Type: Bass Tab

F T W Bass Tab

   
this is a cool song the bass isn't that hard but go over it a few times and u'll
get the hang of it....... happy playing


riff A
G-------------------|
D---------/5554-30--|
A-0-3-03-0----------|
E-------------------|
[ Tab from: http://www.guitartabs.cc/tabs/v/vines/f_t_w_btab.html ]
riff B
G-------------------|
D------------5-555--|
A-00000000333-------|
E-------------------|

riff C
G-------------------|
D-----05----540-----|
A-0303---030--------|
E-------------------|

riff D
G-------------------|
D-7520--------------|
A-----030-----------|
E-------------------|

End of song