Vines - Country Yard Chords & Tabs

 

Country Yard Chords & Tabs

Vines Chords & Tabs

Version: 2 Type: Tab 0 ratings
1 star 2 stars 3 stars 4 stars 5 stars
comments

Country Yard Tab

   
#----------------------------------PLEASE NOTE---------------------------------#
#This file is the author's own work and represents their interpretation of the #
#song. You may only use this file for private study, scholarship, or research. #
#------------------------------------------------------------------------------#

--------------------------
THE VINES - 'COUNTRY YARD'
--------------------------
Tabber:  David Thompson, bring_it_on53@hotmail.com

[Riff 1]
[ Tab from: http://www.guitartabs.cc/tabs/v/vines/country_yard_tab_ver_2.html ]
   A5   C5     G5
e|---------------------------------|---------------------------------|
B|---------------------------------|---------------------------------|
G|---------------------------------|---------------------------------|
D|---------7--------------10-------|---------5---------------5-------|
A|-----7---------7----10---------10|-----5---------5-----5---------5-|
E|-5-----------5---8-----------8---|-3-----------3---3-----------3---|
   1   +   2   +   3   +   4   +     1   +   2   +   3   +   4   +

[Riff 2]

   A5   C5     G5
e|---------------------------------|---------------------------------|
B|---------------------------------|---------------------------------|
G|---------------------------------|---------------------------------|
D|---------7--------------10-------|---------5-----------5-----------|
A|-----7---------7----10---------10|-----5---------5-----------0h2---|
E|-5-----------5---8-----------8---|-3-----------3---3-------3-------|
   1   +   2   +   3   +   4   +     1   +   2   +   3   +   4   +
Comments