Vines - Autumn Shade Chords & Tabs

 

Autumn Shade Chords & Tabs

Vines Chords & Tabs

Version: 4 Type: Chords 0 ratings
1 star 2 stars 3 stars 4 stars 5 stars
comments

Autumn Shade Chords

   
#----------------------------------PLEASE NOTE---------------------------------#
#This file is the author's own work and represents their interpretation of the #
#song. You may only use this file for private study, scholarship, or research. #
#------------------------------------------------------------------------------#

Artist: The Vines
Song: Autumn Shade
Album: Highly Evolved
Tabbed By: Ben Gonzalez

  Em   C  Bb  Fm  Am
e|-0-|-0-|---|---|---|------------------------------------------------|
B|-0-|-1-|---|---|-1-|------------------------------------------------|
G|-0-|-0-|-3-|---|-2-|------------------------------------------------|
D|-2-|-2-|-3-|-3-|-2-|------------------------------------------------|
A|-2-|-3-|-1-|-3-|-0-|------------------------------------------------|
E|-0-|-0-|---|-1-|---|------------------------------------------------|

[ Tab from: http://www.guitartabs.cc/tabs/v/vines/autumn_shade_crd_ver_4.html ]
e|-7-7---------------------------------------------------------------------------------------------
B|------8-8--5-5-3~----5-3-5-3-6~---8--8fb~---6-4-4b-----------------------------------------------
G|---------------------------------------------------5--4-4--7-4-7-9--------------------8-8--6--4--
D|-------------------------------------------------------------------10------8-10-8~---------------
A|-----------------------------------------------------------------------10------------------------
E|-------------------------------------------------------------------------------------------------

e|-------------------------------------------------------------------------------------------------
B|-------------------------------------------------------------------------------------------------
G|-----------------------3~---2-0~--3-2-0-3-2-0-4-------------------------3~---2-0~--3-2-0-3-2-0-4~
D|-2~--2--4/5-2~--2--4/5---------------------------2~--2--4/5-2~--2--4/5---------------------------
A|-------------------------------------------------------------------------------------------------
E|-------------------------------------------------------------------------------------------------
Comments