Vines - Autumn Shade Chords & Tabs

 

Autumn Shade Chords & Tabs

Vines Chords & Tabs

Version: 3 Type: Chords

Autumn Shade Chords

   
#----------------------------------PLEASE NOTE---------------------------------#
#This file is the author's own work and represents their interpretation of the #
#song. You may only use this file for private study, scholarship, or research. #
#------------------------------------------------------------------------------##

Title: Autumn Shade 
Band: The Vines
Album: Highly Evolved
Transcribed By: Gisselle Nunez
My Email: Gismelly@aol.com

This is my first transcript but I think it’s pretty much right. I saw this same 
tab somewhere online, but it just wasn’t right.

   Em   C  Bb   F  Am
E- -0- -0-  
B- -0- -1-         -1-
G- -0- -0- -3-     -2-
D- -2- -2- -3- -3- -2-
A- -2- -3- -1- -3- -0-
E- -0- -0-     -1-


[ Tab from: http://www.guitartabs.cc/tabs/v/vines/autumn_shade_crd_ver_3.html ]
E|-7-7---------------------------------------------------------------------------------
B|-----8-8-5-3-3~--5-3-5-3-6~--8-8—8fb--6-4b-------------------------------------------
G|--------------------------------------------5--4-7-7-4-7-9---------------------------
D|-----------------------------------------------------------10--------10-10-8/7/5-----
A|---------------------------------------------------------------10-10-----------------
E|-------------------------------------------------------------------------------------

E|-------------------------------------------------------------------------------------
B|-------------------------------------------------------------------------------------
G|-------------------3~--2--0--3-2-0---------------------------3~--2—0--3-2-0----------
D|-2~---4/5-2~---4/5-----------------2-5-7-5—2~---4/5-2~---4/5----------------2-5-7-5-9
A|-------------------------------------------------------------------------------------
E|-------------------------------------------------------------------------------------

In the tabs the spaces between each note represents how many beats. I was trying to make
it as easy as possible for you all to get it as accurate as possible. If any one has any
comments or questions just email me.