Villanueva Alejandro - I Love You Baby Chords & Tabs

 

I Love You Baby Chords & Tabs

Villanueva Alejandro Chords & Tabs

Version: 1 Type: Tab 0 ratings
1 star 2 stars 3 stars 4 stars 5 stars
comments

I Love You Baby Tab

this son i invented you can dowload it from napster
it goes as fast as stairway to heaven
[ Tab from: http://www.guitartabs.cc/tabs/v/villanueva_alejandro/i_love_you_baby_tab.html ]
-------------0------2----------
---0---0-----0-----3-3---------
--0-0-0-0---0--0--2--2-2-------   repeat
-2---1--0-0--------------------
-------------------------------
-------------------------------

-2------0-----2-1---
-2------2--etc4-1------
-3------2-----4-2---
-4-etc..2-----4-3--------
-4------0-----2-3---
-2------0-----2-1---
Comments