Village People - Ymca Chords & Tabs

 

Ymca Chords & Tabs

Village People Chords & Tabs

Version: 1 Type: Tab 0 ratings
1 star 2 stars 3 stars 4 stars 5 stars
comments

Ymca Tab

YMCA - The Village People

Here is the main part of this "classic" song
[ Tab from: http://www.guitartabs.cc/tabs/v/village_people/ymca_tab.html ]
|-------------|-------------------|-------------|---------------------|
|-2-----------|-------------------|-4-----------|---------------------|
|---3-----3-1-|-------6-----6--|---3-----3-1-|--------6-----6---|
|-------------|-4-6-8--------8----|-------------|-4--6-8--------8-----|
|-------------|-------------------|-------------|---------------------|
|-------------|-------------------|-------------|---------------------|


|-----------------|--------------2----|---------------|---------------|
|-4---------------|-------4-----4--|-6---4---2--|---------------|
|---4------4-3-|-1-3-4-------------|---------------|--4---3--1-1|
|-----------------|-------------------|---------------|---------------|
|-----------------|-------------------|---------------|---------------|
|-----------------|-------------------|---------------|---------------|


Dark_Magician 2002 (nicks_mem@yahoo.co.uk)	
Comments