Vidal Christina - Take Me Away Whole Song Chords & Tabs

 

Take Me Away Whole Song Chords & Tabs

Vidal Christina Chords & Tabs

Version: 1 Type: Tab 5 ratings
1 star 2 stars 3 stars 4 stars 5 stars
comments

Take Me Away Whole Song Tab

   
Take me Away
Christina Vidal
From the Movie Freaky Friday
Standard Tuning

Intro/ Pre Chorus
e|---------------------------------------------------------|-|
B|---------------------------------------------------------|-|
G|-----x-x-x-x-x-x-----x-x-x-x-x-x-----x-x-----x-x---------|-|
D|-4-4-x-x-x-x-x-x-4-4-x-x-x-x-x-x-4-4-x-x-4-4-x-x-4-4-4-4-|-|
A|-4-4-x-x-x-x-x-x-4-4-x-x-x-x-x-x-4-4-x-x-4-4-x-x-4-4-4-4-|-|
E|-2-2-------------2-2-------------2-2-----2-2-----2-2-2-2-|-|

e|-|---------|
B|-|---------|
G|-|---------|
D|-|-4-4-4-4-|
A|-|-4-4-4-4-|
E|-|-2-2-2-2-|


Main Riff
e|---------------------------------|
B|---------------------------------|
G|-------------x-x-x---------------| x2
D|-------------x-x-x---------------|
A|-----0-1-2-2-x-x-x-3-2-0-2-2-1-0-|
E|-2-2-----------------------------|


Verse I
e|-------------------------------------------------------|
B|-------------------------------------------------------|
G|-------------------------------------------------------|
D|-(Bass riff here)------------(More bass)---------------|
A|----------------------0-1-2--------------3-2-0-2-2-1---|
E|------------------2-2--------------------------------2-|


Pre-Chorus I: -> intro

Chorus
e|---------------------------------------------------------|
B|---------------------------------------------------------|
G|-7-7-7-7-7-7-7-7-----------------4-4-4-4-4-4-4-4-2-2-2-2-|
D|-7-7-7-7-7-7-7-7-4-4-4-4-4-4-4-4-4-4-4-4-4-4-4-4-2-2-2-2-|
A|-5-5-5-5-5-5-5-5-4-4-4-4-4-4-4-4-2-2-2-2-2-2-2-2-0-0-0-0-|
E|-----------------2-2-2-2-2-2-2-2-------------------------|

e|---------------------------------------------------------|
B|---------------------------------------------------------|
G|-2-2-2-2-7-7-7-7-7-7-7-7-----------------4--2--7--9--6-6-|
D|-2-2-2-2-7-7-7-7-7-7-7-7-4-4-4-4-4-4-4-4-4--2--7--9--6-6-|
A|-0-0-0-0-5-5-5-5-5-5-5-5-4-4-4-4-4-4-4-4-2--0--5--7--4-4-|
E|-------------------------2-2-2-2-2-2-2-2-----------------|

e|---------------------------------|
B|---------------------------------|
G|-6-6-6-6-6-6-6-6-6-6-6-6-6-6-6-6-|
D|-6-6-6-6-6-6-6-6-6-6-6-6-6-6-6-6-|
A|-4-4-4-4-4-4-4-4-4-4-4-4-4-4-4-4-|
E|---------------------------------|
Main Riff /?x


Verse II
e|-----------------------------------------|
B|-----------------------------------------|
G|-----------------------------------------|
D|-(Mostly bass, until here)---------------|
A|---------------------------3-2-0-2-2-1---|
E|---------------------------------------2-|

[ Tab from: http://www.guitartabs.cc/tabs/v/vidal_christina/take_me_away_whole_song_tab.html ]
Pre-Chorus II
e|---------------------------------------------------|
B|---------------------------------------------------|
G|---------------------------------------------------|
D|-4-4------4-4------4-4-x-x-4-4-x-x-4-4-4-4-4-4-4-4-|
A|-4-4------4-4------4-4-x-x-4-4-x-x-4-4-4-4-4-4-4-4-|
E|-2-2------2-2------2-2-x-x-2-2-x-x-2-2-2-2-2-2-2-2-|


Repeat the Chorus.


Solo (I think Guitar 2 plays the chorus again)
e|----------------------------------------------------------------|
B|------7------------------7---------3----------------------------|
G|------9b11--11--11r9-7---9b11------5b7r-3-----------------------|
D|-------------------------------------------5--------------------|
A|----------------------------------------------------------------|
E|----------------------------------------------------------------|


e|----------------------------------------------------------------|
B|------12-----12------------7-------------------------7/11-------|
G|------14b16--16r14--11-----9b11--11--11--11--11r9---------------|
D|----------------------------------------------------------------|
A|----------------------------------------------------------------|
E|----------------------------------------------------------------|


e|-----14--14--14--14/12------------------------------------------|
B|-----15--15--15--15------15-14--14--14--14--14/12---------------|
G|----------------------------14--14--14--14--14-----14--11/16----|
D|----------------------------------------------------------------|
A|----------------------------------------------------------------|
E|----------------------------------------------------------------|


e|----------------------------------------------------------------|
B|-----17b19-?---17--15------15--15--15/17-17-17-17-17-17-17------|
G|-----------------------16---------------------------------------|
D|----------------------------------------------------------------|
A|----------------------------------------------------------------|
E|----------------------------------------------------------------|


e|----------------------------------------------------------------|
B|----17/18-18-18-18-18-18-18------------9--9--------9--9---------|
G|--------------------------------11b13--13-13--11b9-13-13--------|
D|----------------------------------------------------------------|
A|----------------------------------------------------------------|
E|----------------------------------------------------------------|


e|-----------------------------------------------------------------|
B|----------------9--------------------------14-------18-----19----|
G|----11--10--11--11b13r-10---10-10-11b13----16b18----20b22--21b23-|
D|-----------------------------------------------------------------|
A|-----------------------------------------------------------------|
E|-----------------------------------------------------------------|


Finish the song with the Chorus x2, and some feedback


I found this tab on mxtabs.net so i take no credit for this tab but
i have played it and it sounds pretty damn good. well im out!!
Comments