Vidal Christina - Take Me Away Solo Chords & Tabs

 

Take Me Away Solo Chords & Tabs

Vidal Christina Chords & Tabs

Version: 1 Type: Tab 0 ratings
1 star 2 stars 3 stars 4 stars 5 stars
comments

Take Me Away Solo Tab

Tabbed by Jack Butler

Here is my interpretation of the "Take me Away" guitar solo 
from the movie "Freaky Friday."

Feel free to submit any corrections and enjoy!


Take Me Away Guitar solo:


E----------------------------------------7---------7-----7--
B----------------------2-4b5r4--2------10b12-----10b12-10b12
G-~4--~4---4-2-0--~4--------------~4------------------------
D-----------------------------------------------------------
A-----------------------------------------------------------
E-----------------------------------------------------------



E---7---------------------2------2-----2----2---------------
B-10b12---10b12r10---7---5b7----5b7---5b7--5b7----5b7r5--2--
G-----------------------------------------------------------
D-----------------------------------------------------------
A-----------------------------------------------------------
E-----------------------------------------------------------



E----14---------14-----14-----14-----------------------14---
B---17b19------17b19--17b19--17b19---17b19r17--14------14---
G-----------------------------------------------------------
D-----------------------------------------------------------
A-----------------------------------------------------------
E-----------------------------------------------------------

[ Tab from: http://www.guitartabs.cc/tabs/v/vidal_christina/take_me_away_solo_tab.html ]
E--14---14--14--14---12-----------12b13--12--10--12--10-----
B--14---14--14--14------14----------------------------------
G-----------------------------------------------------------
D-----------------------------------------------------------
A-----------------------------------------------------------
E-----------------------------------------------------------



E-----12-12-12-12-12-12-12-12-14-14-14-14-14-14-14-14-------
B-12--------------------------------------------------------
G-----------------------------------------------------------
D-----------------------------------------------------------
A-----------------------------------------------------------
E-----------------------------------------------------------


E----------7--7------------7--7-----------------------------
B----------7--7------------7--7--------------9--------------
G--11b13------------11b13---------11--10-11-----11--~10-----
D-----------------------------------------------------------
A-----------------------------------------------------------
E-----------------------------------------------------------


E------12---------13---------14-----------------------------
B-----15b17------16b18------17b19---------------------------
G-----------------------------------------------------------
D-----------------------------------------------------------
A-----------------------------------------------------------
E-----------------------------------------------------------
Comments