Victor Bailey - Lowblow Chords & Tabs

 

Lowblow Chords & Tabs

Victor Bailey Chords & Tabs

Version: 1 Type: Bass Tab 0 ratings
1 star 2 stars 3 stars 4 stars 5 stars
comments

Lowblow Bass Tab

LOWBLOW
By Victor Bailey


G-----4---6-----8-9---------------6-4---------------------------------
D---6---6-----------9-7-6-------6-----6-4----4-6----------------7---5-
A-7---------------------------7------------7------7-5-------5-8---8---
E-----------------------------------------------------8-5-6-----------

[ Tab from: http://www.guitartabs.cc/tabs/v/victor_bailey/lowblow_btab.html ]
G-------------------------------------------------------11-13---------
D-6---------6-9-6-7-----9-7-6-------6----------11-13-14-------11------
A---7-----7-------------------7-6-----9-----11------------------------
E-----7-8-------------------------9-----------------------------------


G-12-9-----------------9-13-9-11----16-11-----------------------------
D------9-10-8-9-6-7-11--------------------14--------------------------
A--------------------------------------------16-15---------12---------
E----------------------------------------------------16-14------------

From: re artu 

Comments