Vics Barber Shoppe - Open Wound Chords & Tabs

 

Open Wound Chords & Tabs

Vics Barber Shoppe Chords & Tabs

Version: 1 Type: Bass Tab 0 ratings
1 star 2 stars 3 stars 4 stars 5 stars
comments

Open Wound Bass Tab

heres our really cool song if you want the rthym email or by the cd elementaus@hotmail.com



[ Tab from: http://www.guitartabs.cc/tabs/v/vics_barber_shoppe/open_wound_btab.html ]
-------------------------------------------------------------2----0-------	
----2----2----2-/--4----4----4-/---7----7---7--/-0----0---------------2-
--------------------------------------------------------------------------
--------------------------------------------------------------------------


------------------------------------------------------------------------------
--------------------------------3---2----------------------------------------
----------------3----3----3-------------2----2---2---3----3---3-----------
-3----3----3---------------------------------------------------------3---3---3
Comments