Vicente Amigo - Morao Chords & Tabs

 

Morao Chords & Tabs

Vicente Amigo Chords & Tabs

Version: 1 Type: Tab 0 ratings
1 star 2 stars 3 stars 4 stars 5 stars
comments

Morao Tab

                                    Morao                                       


                                                                   Vicente Amigo
 (Capo 1)
 http://membres.lycos.fr/guitarravicenteamigo/



                                                                        
E||---------------------|------------------------||--------------------|
B||---------4-----5-----|--------------0-4-0-----||--------4-----5-----|
G||*-----4-----4-----3--|--------3-----------3--*||-----4-----4-----3--|
D||*--------------------|-----1-----1-----------*||--------------------|
A||---------------------|------------------------||--------------------|
E||---4-----------------|--3---------------------||--4-----------------|


                                                               
--------------------|--------------------|--------------------|
--------------4-----|--------------2-----|--------------0-----|
--------3--------1--|--------1-----------|--------3--------3--|
-----4-----4--------|-----2-----2-----4--|-----4-----4--------|
--------------------|--------------------|--2-----------------|
--2-----------------|--0-----------------|--------------------|

[ Tab from: http://www.guitartabs.cc/tabs/v/vicente_amigo/morao_tab.html ]
                                                                      
--------------------||---------------------|------------------------||
--------------0-----||---------4-----5-----|--------------0-4-0-----||
--------3--------3--||*-----4-----4-----3--|--------3-----------3--*||
-----4-----4--------||*--------------------|-----1-----1-----------*||
--2-----------------||---------------------|------------------------||
--------------------||---4-----------------|--3---------------------||


                                                               
--------------------|--------------------|--------------------|
--------4-----5-----|--------------4-----|--------------2-----|
-----4-----4-----3--|--------3--------1--|--------1-----------|
--------------------|-----4-----4--------|-----2-----2-----4--|
--------------------|--------------------|--------------------|
--4-----------------|--2-----------------|--0-----------------|


                                           
--------------------|--------------------||
--------------0-----|--------------0-----||
--------3--------3--|--------3--------3--||
-----4-----4--------|-----4-----4--------||
--2-----------------|--2-----------------||
--------------------|--------------------||


Comments