Vic Barber Shoppe - Talk Shows Chords & Tabs

 

Talk Shows Chords & Tabs

Vic Barber Shoppe Chords & Tabs

Version: 2 Type: Tab 0 ratings
1 star 2 stars 3 stars 4 stars 5 stars
comments

Talk Shows Tab

   
Intro
e-----------------------------------|
B-----------------------------------|
G-7-7-7-7-7-7-7-7---7-7-7-7-7-7-7-7-|
D-x-x-x-x-x-x-x-x?x-x-x-x-x-x-x-x-x-|
A-5-5-5-5-5-5-5-5?5-5-5-5-5-5-5-5?5-|
E-----------------------------------|


Perverse
---------------------------------|
---------------------------------|
8-8-8-8-7-7-7-7?-8-8-8-8-7-7-7-7-|
7-7-7-7-7-7-7-7?-7-7-7-7-7-7-7-7-|
x-x-x-x-x-x-x-x?-x-x-x-x-x-x-x-x-|
5-5-5-5-5-5-5-5?-5-5-5-5-5-5-5-5-|
---------------------------------|

-------------------------------------------------|
-------------------------------------------------|
10-10-10-10--9--9--9--9--10-10-10-10--9--9--9--9-|
9--9--9---9--9--9--9--9--9--9--9--9---9--9--9--9-|
x--x--x---x--x--x--x--x--x--x--x--x---x--x--x--x-|
7--7--7---7--7--7--7--7--7--7--7--7---7--7--7--7-|
-------------------------------------------------|

---------------------------------|
---------------------------------|
6-6-6-6-5-5-5-5--6-6-6-6-5-5-5-5-|
5-5-5-5-5-5-5-5--5-5-5-5-5-5-5-5-|
x-x-x-x-x-x-x-x--x-x-x-x-x-x-x-x-|
3-3-3-3-3-3-3-3--3-3-3-3-3-3-3-3-|
---------------------------------|

---------------------------------|
---------------------------------|
8-8-8-8-7-7-7-7?-8-8-8-8-7-7-7-7-|
7-7-7-7-7-7-7-7?-7-7-7-7-7-7-7-7-|
x-x-x-x-x-x-x-x?-x-x-x-x-x-x-x-x-|
5-5-5-5-5-5-5-5?-5-5-5-5-5-5-5-5-|
---------------------------------|


 prevese 2 // chorus
-------------------------| x2
-------------------------| x2
7-7----------------------| x2
7-7--5-5--x-x--9-9--7-7--| x2
5-5--5-5--x-x--9-9--7-7--| x2
-----3-3--x-x--7-7--5-5--| x2

verse
[ Tab from: http://www.guitartabs.cc/tabs/v/vic_barber_shoppe/talk_shows_tab_ver_2.html ]
   pm=========     pm=========     pm=========     pm=========
-------------------------------------------------------------------| x2
-------------------------------------------------------------------| x2
7--7-7-7-7-7-7-----------------------------------------------------| x2
7--7-7-7-7-7-7--5--5-5-5-5-5-5--9--9-9-9-9-9-9--7--7-7-7-7-7-7-----| x2
5--5-5-5-5-5-5--5--5-5-5-5-5-5--9--9-9-9-9-9-9--7--7-7-7-7-7-7-----| x2
----------------3--3-3-3-3-3-3--7--7-7-7-7-7-7--5--5-5-5-5-5-5-----| x2

preverse 2

verse

chorus

preverse
preverse 2

verse

preverse 2
verse

chorus

outro

----------------------------------------------------------------------------------------------|
----------------------------------------------------------------------------------------------|
8-8-8-8-7-7-7-7--8-8-8-8-7-7-7-7--8-8-8-8-7-7-7-7--8-8-8-8-7-7-7-7--8-8-8-8-7-7-7-7-7-7-8-7-3-|
7-7-7-7-7-7-7-7--7-7-7-7-7-7-7-7--7-7-7-7-7-7-7-7--7-7-7-7-7-7-7-7----------------------------|
x-x-x-x-x-x-x-x--x-x-x-x-x-x-x-x--------------------------------------------------------------|
5-5-5-5-5-5-5-5--5-5-5-5-5-5-5-5--------------------------------------------------------------|
----------------------------------------------------------------------------------------------|

here are the words

(verse one)
Wake up, it's ten o'clock
Stumble around and jam my cock
Turn on the t.v., it's Ricky Lake
Stayed out last night way to late

(instrumental)

late night t.v. shows
Jerry Springer digs with some hoes
turn on the coffe to late to go
back to work to make my payload

late night talk shows
please killo me
with a hose
i know youll lie

instramental
instramental

1:00 i thought you called
johava's whitness tells me his cause
cross the street to your house
the front doors locked so i bust it down

instamental

your dad is running with a bat
i tell him i wounder were your at
he swings and misses and hits the wall
i see your mom making prank phone calls

late night talk shows
please kill me
with a hose
i know youll lie

late night talk shows
please kill me
with a hose
i know youll lie
Comments