Vibrolush - Bridge Over Me Chords & Tabs

 

Bridge Over Me Chords & Tabs

Vibrolush Chords & Tabs

Version: 1 Type: Tab 0 ratings
1 star 2 stars 3 stars 4 stars 5 stars
comments

Bridge Over Me Tab

   
Song:  "Bridge Over Me"
Artist:  Vibrolush
Album:  Vibrolush (1997)
Tabbed by:  Tim Marshall (TimDogg81@prodigy.com)
This is a great song from a band that isn't too popular but 
should be.  I'd buy this cd just for this song.. 
Standard Tuning:  E A D G B E
Intro/Chorus (w/ dist.):
|-----------------------------|
|-----------------------------|
|---------7-7-7---------------|
|--4-4-4--7-7-7--7-7-7-7-7-7--|
|--4-4-4--5-5-5--7-7-7-7-7-7--|
|--2-2-2---------5-5-5-5-5-5--|
played with...
|-----0----0------0----0-----0----0-----0----0--|
|-------10----------10---------10---------10----|
|-----------------------------------------------|
|--11----------12---------11---------12---------|
|-----------------------------------------------|
|-----------------------------------------------|
Verse (mostly bass):
|------------------------------------------------------
|------------------------------------------------------
|------------------------------------------------------
|--5-5-5-5-5/10--10-10-10-10---------------------------
  halfway through the verse with tremolo pedal
|--0---------------------------------------------------
|--2---------------------------------------------------
|--2---------------------------------------------------
|--2---------------------------------------------------
|--0---------------------------------------------------
|------------------------------------------------------
Interlude (w/ dist.):
 play this 5 times then strum A5
|------------------------------------|
|------------------------------------|
|--4-4-4-4--2-2-2--------------------|
|--4-4-4-4--2-2-2--2-2-2-2--2-2-2-2--|
|--2-2-2-2--0-0-0--2-2-2-2--2-2-2-2--|
|------------------0-0-0-0--0-0-0-0--|
Last Verse (bass):
The bass is a little different here so I added it
|------------------------------------------------------
|------------------------------------------------------
|------------------------------------------------------
|------------------------------------------------------
|---------5-5-5----------------------------------------
|--2-2-2---------5-5-5-5-5-5---------------------------
That's just about all of it.. there's a little solo in there, 
if you want me to figure that out email me.  Listen to the cd 
for the changes.  Questions, comments or if you want other tabs
email me.


[ Tab from: http://www.guitartabs.cc/tabs/v/vibrolush/bridge_over_me_tab.html ]
Comments