Vex Red - Clone Jesus Chords & Tabs

 

Clone Jesus Chords & Tabs

Vex Red Chords & Tabs

Version: 1 Type: Tab 0 ratings
1 star 2 stars 3 stars 4 stars 5 stars
comments

Clone Jesus Tab

   
Struming not included but if you listen to the song it will be easy to work out
W\Distortion
e--------------------------------------||
b--------------------------------------||
g-2-4bto5------------2-4bto5-----------||  x2
d-2------2-3-3-2-3-3-2------2-3-3-2-3-0||
a-0------2-3-3-2-3-3-0------2-3-3-2-3-0||
d-x------2-3-3-2-3-3-x------2-3-3-2-3-0||

Clean
e--------------------------------------------------||
b--------------------------------------------------||
g-2-2-2-2-2----------------------------------------||
d-2-2-2-2-2-0-0-0-0-0-3-3-3-3-3-0-0-0-0-0-0-0-0-0-0||x4
a-0-0-0-0-0-0-0-0-0-0-3-3-3-3-3-0-0-0-0-0-0-0-0-0-0||
d-x-x-x-x-x-0-0-0-0-0-3-3-3-3-3-0-0-0-0-0-0-0-0-0-0||

You go to far
e----------------------------------------------------------
b----------------------------------------------------------
g-5-5-5-5-5-5-5-5-7-7-7-7-7-7-7-7--------------------------
d-5-5-5-5-5-5-5-5-7-7-7-7-7-7-7-7-3-3-3-3-3-3-3-3-3-3-3-3-3
a-3-3-3-3-3-3-3-3-5-5-5-5-5-5-5-5-3-3-3-3-3-3-3-3-3-3-3-3-3
d---------------------------------3-3-3-3-3-3-3-3-3-3-3-3-3
[ Tab from: http://www.guitartabs.cc/tabs/v/vex_red/clone_jesus_tab.html ]
------------------------------------------------------------
------------------------------------------------------------
-5-5-5-5-5-5-5-5-7-7-7-7-7-7-7-7----------------------------
-5-5-5-5-5-5-5-5-7-7-7-7-7-7-7-7-7-7-7-7-7-7-7-5-5-5-5-5-5-5
-3-3-3-3-3-3-3-3-5-5-5-5-5-5-5-5-7-7-7-7-7-7-7-5-5-5-5-5-5-5
---------------------------------7-7-7-7-7-7-7-5-5-5-5-5-5-5

e------------------------------------------
b------------------------------------------
g------------------------------------------
d-5-7-7-7-7-7-8-7-7-7-7-7-5-7-7-7-7-7-5-5-5
a-5-7-7-7-7-7-8-7-7-7-7-7-5-7-7-7-7-7-5-5-5
d-5-7-7-7-7-7-8-7-7-7-7-7-5-7-7-7-7-7-5-5-5

e------------------------------------------
b------------------------------------------
g------------------------------------------
d-5-7-7-7-7-7-8-7-7-7-7-7-5-7-7-7-7-7-5-4-3
a-5-7-7-7-7-7-8-7-7-7-7-7-5-7-7-7-7-7-5-4-3
d-5-7-7-7-7-7-8-7-7-7-7-7-5-7-7-7-7-7-5-4-3

Your not Jesus
e----------------------------||
b----------------------------||                            
g-----------------------3----||
d-0-2-3-0-4-0-0-0-2-3-0-3-0-0||x4
a-0-2-3-0-4-0-0-0-2-3-0-1-0-0||
d-0-2-3-0-4-0-0-0-2-3-0-x-0-0||

Middle bit
e-----------||
b----3-2----||
g-2---2-2-2-||
d--5-----5-5||
a-----------||
d-----------||

Then it goes back to the chorus part then the intro.
Have fun and Mail me if you have any probs.
Vex Red Rule!!!!
DGROHL
Comments