Vex Red - Cant Smile Chords & Tabs

 

Cant Smile Chords & Tabs

Vex Red Chords & Tabs

Version: 1 Type: Tab 0 ratings
1 star 2 stars 3 stars 4 stars 5 stars
comments

Cant Smile Tab

   
Song: Can’t Smile
Artist: Vex Red
Album: Start With a Strong and Persistent Desire
Tabbed By: Tommi S.

Tuning: Drop down one whole step and drop to c
        Down to high (C,G,C,F,A,D) 

This was pretty tough, and I’m not sure at all that it goes like this.
Please send comments and corrections. 


Intro:

Bass?:

1:|--------------------------|
2:|--------------------------|
3:|--------------------------|
4:|--------------------------|
5:|--------------------------|
6:|--0--0--3--5--0--0—-3—-5--|

Guitar 1:

1:|-----------------------|
2:|-----------------------|
3:|--10--10--10--9--9--9--|
4:|-----------------------|
5:|-----------------------|
6:|-----------------------|

Guitar 2:

1:|-----------------------------------------------|
2:|-----------------------------------------------|
3:|--7--7--7--7---7--7---9--9--9--9-/-10--10--10--|
4:|--7--7--7--7---7--7---x--x--x--x-/--x---x---x--|
5:|--5--5--5--5---5--5---7--7--7--7-/--8---8---8--|
6:|--7--7--7--7---7--7----------------------------|

1:|-----------------------------------------------|
2:|-----------------------------------------------|
3:|--5--5--5--5---5--5---9--9--9--9-/-10--10--10--|
4:|--5--5--5--5---5--5---x--x--x--x-/--x---x---x--|
5:|--3--3--3--3---3--3---7--7--7--7-/--8---8---8--|
6:|--5--5--5--5---5--5----------------------------|

Guitar 1:

1:|--------------------------------|
2:|--------------------------------|
3:|--10--10--10--9--9--9--7--7--7--| Played just before
4:|--------------------------------| the 1st verse, over
5:|--------------------------------| the 2nd guitar
6:|--------------------------------|

Verse:

Guitar 1:
[ Tab from: http://www.guitartabs.cc/tabs/v/vex_red/cant_smile_tab.html ]
1:|-----------------------------------------------------------|
2:|-----------------------------------------------------------|
3:|--7--7--7--7--7--7----------5--5--5--5---7--7--7--7--7--7--|
4:|--7--7--7--7--7--7---5--5---5--5--5--5---7--7--7--7--7--7--|
5:|--5--5--5--5--5--5---5--5---3--3--3--3---5--5--5--5--5--5--|
6:|---------------------5--5----------------------------------|

Chorus:

Guitar 1:

1:|-----------------------|
2:|-----------------------|
3:|--10--10--10--9--9--9--|
4:|-----------------------|
5:|-----------------------|
6:|-----------------------|

Guitar 2:

1:|-----------------------------------------------|
2:|-----------------------------------------------|
3:|--7--7--7--7---7--7---9--9--9--9-/-10--10--10--|
4:|--7--7--7--7---7--7---x--x--x--x-/--x---x---x--|
5:|--5--5--5--5---5--5---7--7--7--7-/--8---8---8--|
6:|--7--7--7--7---7--7----------------------------|

1:|-----------------------------------------------|
2:|-----------------------------------------------|
3:|--5--5--5--5---5--5---9--9--9--9-/-10--10--10--|
4:|--5--5--5--5---5--5---x--x--x--x-/--x---x---x--|
5:|--3--3--3--3---3--3---7--7--7--7-/--8---8---8--|
6:|--5--5--5--5---5--5----------------------------|

Bridge:

Woodclaps (or something like that):

1:|---------------------------------------------------------------|
2:|---------------------------------------------------------------|
3:|--9---9--7--9---9---9--7--9---9---9--7--9---9---9--7--9--7--9--|
4:|---------------------------------------------------------------|
5:|---------------------------------------------------------------|
6:|---------------------------------------------------------------|

Guitar 1:

1:|----------------------------|
2:|----------------------------|
3:|--------9--10---------------|
4:|-----7----------------7--8--|
5:|--5----------------5--------|
6:|----------------5-----------|

Guitar 2: (Think you're so good...)

1:|----------------------------------------|
2:|----------------------------------------|
3:|--7--7--7--7--7--7---5--5---------------|
4:|--7--7--7--7--7--7---5--5---3--3--3--3--|
5:|--5--5--5--5--5--5---3--3---3--3--3—-3--|
6:|----------------------------3--3--3--3--|

Then chorus again...
Comments