Vex Red - Cant Smile Chords & Tabs

 

Cant Smile Chords & Tabs

Vex Red Chords & Tabs

Version: 1 Type: Bass Tab 0 ratings
1 star 2 stars 3 stars 4 stars 5 stars
comments

Cant Smile Bass Tab

   
Band: Vex Red
Song: Cant Smile
Tabbed by: Steve Fildes
Tuning : Dropped D

Intro: Guitar 2
G[--8-8-8-7-7-7--|
D[--x-x-x-x-x-x--|
A[--6-6-6-5-5-5--|
D[---------------|
Played 6 times and then guitar 1 does the chorus

Chorus: Guitar 1
       C         D    D#        F        D    D#
G[--5-5-5-5-5--7-7-7/8-8-8-------------7-7-7/8-8-8----|
D[--5-5-5-5-5--x-x-x-x-x-x--3-3-3-3-3--x-x-x-x-x-x----|
A[--3-3-3-3-3--5-5-5/6-6-6--3-3-3-3-3--5-5-5/6-6-6----|
D[--------------------------3-3-3-3-3-----------------|
  Guitar 2 plays the intro riff over the C and F parts


Verse: Guitars 1 & 2
	C        F  A#   D#       F
G[--5-5-5-5-5-5-----3-------------------------------|
D[--5-5-5-5-5-5--3--3--1-1-1--3-3-3-3-3-3-3-3-3-3---|
A[--3-3-3-3-3-3--3--1--1-1-1--3-3-3-3-3-3-3-3-3-3---|
D[---------------3-----1-1-1--3-3-3-3-3-3-3-3-3-3---|
  You'll be there to.......

[ Tab from: http://www.guitartabs.cc/tabs/v/vex_red/cant_smile_btab.html ]
Bridge: Guitar 1
       C       F
G[--------5-------10----|
D[-------5-------10-----| x2
A[--3-3-3---8-8-8-------|
D[----------------------|
              C                    F             D#
G[--5-5-5-5-5-5-5-5-5-5-5-5-10-10-10-10-10--8-8-8-8-8-8-8--|
D[--5-5-5-5-5-5-5-5-5-5-5-5-10-10-10-10-10--8-8-8-8-8-8-8--|
A[--3-3-3-3-3-3-3-3-3-3-3-3--8--8--8--8--8--6-6-6-6-6-6-6--|
D[---------------------------------------------------------|

Play Chorus till end

Lyrics:

Keep it real, I know that something is wrong with you
I am too impatient to wait for something new
Why cant I say what I need you to here?
find it hard to dream, I know that you are here, you are here

You'll be there to laugh your head off when I fall
I will go with them to look for something more
Subject to change, will you identify?
Look at me close you'll see that I cant smile, I cant smile

Cant smile, cant smile, cant smile, cant smile
I cant smile, I cant smile, I cant smile, I cant smile

Think your so good with your toking, fuck your smoking, that what its all about
Comments