Verve Pipe - Villains Acoustic Chords & Tabs

 

Villains Acoustic Chords & Tabs

Verve Pipe Chords & Tabs

Version: 1 Type: Tab

Villains Acoustic Tab

simple enough song....i'll let you guys figure out the rhythm, it's pretty basic.
[ Tab from: http://www.guitartabs.cc/tabs/v/verve_pipe/villains_acoustic_tab.html ]
verse chords:
--------------------|--------------|
----------0---3-----|-----0--------|
--1---2---1---1-----|-----2--------|
--2---2---2---2-----|-----2--------|
--2---2---2---2-----|-----0--------|
--------------------|--------------|
"another villain..."  "i'm losing interest..."

---2-------------------|
---3---2---------------|
---2---2---1-----------|
-------2---2-----------|
-----------2-----------|
-----------------------|
"See how they twist and shout"

simple enough....there's a great acoustic version on brian vander ark's new solo album 
reach"...anywho, enjoy and remember to rate/comment.

-drew