Verve Pipe - The Freshmen Chords & Tabs

 

The Freshmen Chords & Tabs

Verve Pipe Chords & Tabs

Version: 3 Type: Tab 0 ratings
1 star 2 stars 3 stars 4 stars 5 stars
comments

The Freshmen Tab

-------------------------------------------------------------------------------
			     The Freshmen - The Verve Pipe
-------------------------------------------------------------------------------
Tabbed by:dkmfan4189
Email:dkmfan4189@yahoo.com

I have figured out a version for this song that doesn't require a capo (cheap me,
i dont own a capo and cant afford it lol)
I couldnt figure out the part for that fuzz guitar that starts about halfway into
the song, o well.                                                   
This should be be about correct, if you have any complaints or suggestions, please
e-mail me. Enjoy!!!


Tuning:Standard


 guitar 1         intro/riff 1
e|---------2---------------5-------------------------------------------------|
B|-----5--------5------5----------------5-------------2----------------------|
G|---4---4----4------2---5---------6--------------2--------------------------|
D|-2-----------------------------6---6----------2---2------------------------|
A|-----------------------------4-----------2---------------------------------|
E|-----------------5--------------------------5------------------------------|

[ Tab from: http://www.guitartabs.cc/tabs/v/verve_pipe/the_freshmen_tab_ver_3.html ]
 guitar 2         riff 1 
e|---------------------------------------------------------------------------|
B|-0h2--5/7--------------------0h2--5/4--------------------------------------|
G|---------------------------------------------------------------------------|
D|---------------------------------------------------------------------------|
A|---------------------------------------------------------------------------|
E|---------------------------------------------------------------------------|


 guitar 1         riff 2
e|---------------------------------------------------------------------------|
B|---------------------------2-----------------------------------------------|
G|-----6--------4--------2---------------------------------------------------|
D|---6---6----4---4----2---2-------------------------------------------------|
A|-4--------2----------------------------------------------------------------|
E|-------------------5-------------------------------------------------------|


 guitar 2         riff 2
e|---------------------------------------------------------------------------|
B|-5p4h5--5p4h5--5p4h5--7-5p4h5----------------------------------------------|
G|---------------------------------------------------------------------------|
D|---------------------------------------------------------------------------|
A|---------------------------------------------------------------------------|
E|---------------------------------------------------------------------------|
Comments