Verve Pipe - Never Let You Down Chords & Tabs

 

Never Let You Down Chords & Tabs

Verve Pipe Chords & Tabs

Version: 1 Type: Tab 0 ratings
1 star 2 stars 3 stars 4 stars 5 stars
comments

Never Let You Down Tab

Tabbed and corrected BY: DENNIS RUIZ
from: niceville, florida
 
I corrected the tab i realized i typed some errors, but this should be right.

"I'M TRYING TO KEEP MY FEET ON THE GROUND..." 
E-------------------------------------------
B-------------------------------------------
G-7-7-3-3-3-3-9-9X4-------7-X16--9-9-7-7-7--
D-7-7-3-3-3-3-9-9---------7------9-9-5-5-5--
A-5-5-1-1-1-1-7-7---------5------7-7-5-5-5--
E ------------------------------------------
[ Tab from: http://www.guitartabs.cc/tabs/v/verve_pipe/never_let_you_down_tab.html ]
" I WILL NEVER LET YOU DOWN...."
E-5---0---5---0---X2------------------------
B---3---3---3---3---------------------------
G-------------------------------------------
D-------------------------------------------
A----------------------------5--------------
E----------------------7-7-5----3-----------

CHORUS:
E--------------------------------------------
B--------------------------------------------
G-7-7-X-X-X-X-9-9X4-7x16-9-9-7-7-7----------- 
D-7-7-X-X-X-X-9-9---7----9-9-5-5-5-----------
A-5-5-X-X-X-X-7-7---5----7-7-5-5-5-----------
E--------------------------------------------
PIANO PART:

E-----10----------10------------------------------
B-8-7----8----8-7------8-7-8-10-10-11-13-10-11-13-
G-------------------------------------------------
D-------------------------------------------------
A-------------------------------------------------
E-------------------------------------------------

THATS IT JUST REPEAT EVERYTHING DURING THE WHOLE SONG. LISTEN AND PLAY
Comments