Verve Pipe - Freshmen Chords & Tabs

 

Freshmen Chords & Tabs

Verve Pipe Chords & Tabs

Version: 2 Type: Tab 0 ratings
1 star 2 stars 3 stars 4 stars 5 stars
comments

Freshmen Tab

   
First of all. i know this song is old but i liked it so i worked it out and though i'd share it. 
second of all this is the first time i've tabbed anything
This in mine version of the freshman by the verve pipe. i've never seen the film clip thingy 
or seen it live. but i have heard the  cdsingle of it. which i have and its not that bad of a 
song. i only listened to it 2wice before i worked it out but i listened to it and i
 think its pretty right. but i can't be to sure cause i havent seen the clip or seen them live.
 
If you feel the need to  complain, comment, or verbally insult me write me an email at freakofnuffs@hotmail.com with RE: thefreshtab 
otherwise play it and enjoy.
standard tuning. (EADGBE)
/ = slide up
H = hit	
^ = bend 
	VERSE
gtr1
E|-------|-----5|-------------|-------|--
B|----7--|------|-------------|-------|--
G|---9--9|------|--------9----|-----6-|--
D|--9--9-|---6--|----11---11--|---7---|--
A|-7-----|--7-7-|--11--11-----|--7-7--|--
E|-------|-5----|-9---------7-|-5-----|--
lEAD BITS ( THE BITS THAT GO OVER THE VERSE THING) this is gtr 2's bits
E|-------|--------|----------
B|-----11|--------|----------------
G|--9H8--|--8h9h8-|----------------------
D|-9-----|-9------|--------------------
A|-------|--------|------------
E|-------|--------|----------
gtr 1
Pre chorus thingy
E|---------|------|--------|---
B|---------|------|--------|---
G|---------|------|--------|---
D|----11---|---9--|---7-5--|---(does this 4 times)
A|--11--11-|--9-9-|--7-7---|---
E|-9-------|-7----|-5------|---
Chorus gtr1
E|--------|-----5--|------------|------------
B|----7---|--------|------------|-------------
G|---9--9-|-------6|---------9--|-----6-------
D|--9--9--|---7----|-----11-----|---7---7------
A|-7------|--7-7-7-|---11--11---|--7-7-7--------
E|--------|-5------|--9-------7-|-5----------
(does this 2wice i think then goes back to ordinary chorus)
(the it has the lead bits posted up the top ther over the top of verse)
[ Tab from: http://www.guitartabs.cc/tabs/v/verve_pipe/freshmen_tab_ver_2.html ]
Chorus 2 (gtr1 plays the picking notes up above while gtr 2 plays this )
( you can work out the struming.)
E|--------------
B|--------------
G|-9------------
D|-9-7-11-9-7---
A|-7-7-11-9-7---
E|---5-9--7-5---
(this is a part heard in the prechorus 2 and at the end i think in the music break thing.)
E|----------------------------------
B|---^-----^-----^--------^---------
G|-9-8-9-9-8-9-9-8-9/11-9-8-9-------
D|----------------------------------
A|----------------------------------
E|----------------------------------
also in music break gtr 1 plays this
E|----------------------------
B|----------------------------
G|----------------------------
D|--------9-----------------X4
A|-11--7--7--9----------------
E|--9--5-----7----------------
then it comes in half way throught the verse lik this
E|---------|--------------|
B|---------|--------------|
G|-------9-|--------------|
D|---11----|----7-6-------|
A|-11--11--|---7-7--------|
E|--------7|--5-----------|


E|-------|-----5|-------------|-------|
B|----7--|------|-------------|-------|
G|---9--9|------|--------9----|-----6-|
D|--9--9-|---6--|----11---11--|---7---|
A|-7-----|--7-7-|--11--11-----|--7-7--|
E|-------|-5----|-9---------7-|-5-----|

E|-------|-----5|-------------|-------|--
B|----7--|------|-------------|-------|--
G|---9--9|------|--------9----|-----6-|--
D|--9--9-|---6--|----11---11--|---7---|--
A|-7-----|--7-7-|--11--11-----|--7-7--|--
E|-------|-5----|-9---------7-|-5-----|--

E|-------|-----5|-------------|-------|--
B|----7--|------|-------------|-------|--
G|---9--9|------|--------9----|-----6-|--
D|--9--9-|---6--|----11---11--|---7---|--
A|-7-----|--7-7-|--11--11-----|--7-7--|--
E|-------|-5----|-9---------7-|-5-----|--

gtr 2 ends on

E|-----|
B|-----|
G|-----|
D|--7--|
A|--7--|
E|--5--|

E|-------|-----5|-------------|--------|--
B|----7--|------|-------------|--------|--I think thats as many times it for the last. 
G|---9--9|------|--------9----|------6-|--there probablys\ a chorus in there or something.
D|--9--9-|---6--|----11---11--|---7----|--You have the chorus thing up there so use it
A|-7-----|--7-7-|--11--11-----|--7-7---|--
E|-------|-5----|-9---------7-|-5------|--


Comments