Verve Pipe - Freshman Chords & Tabs

 

Freshman Chords & Tabs

Verve Pipe Chords & Tabs

Version: 1 Type: Bass Tab 0 ratings
1 star 2 stars 3 stars 4 stars 5 stars
comments

Freshman Bass Tab

   
RIFF A

G ------------------------------------------------------|
D 2---------------------2-------------------------------|
A ----0----4----2---0--------0----4----2----0-----------|
E ------------------------------------------------------|
    
RIFF B   
                                 
G --------------------------------|
D 2--2-2--------------------------|
A -------2--0-0-0--4--4-4-2--0-0-0|
E ---------------4----------------|
    U CAN PLAY THE 4TH FRET IF U WANT TO IT SOUNDS LIKE IT GOES DOWN A LITTLE BIT.

RIFF C    
                                 
G --------|
D --------|
A 4---2--0|
E --------|

SOLO
[ Tab from: http://www.guitartabs.cc/tabs/v/verve_pipe/freshman_btab.html ]
G -------------PPH-----------------|
D --------2-2-4202--------2-2-4----|
A ----0-0-------------0-0-------2-2|
E 4-4--------------4-4-------------|
    
RIFF A
VERSE:
when I was young I knew everything
and she a punk who rarely ever took advice
now I'm guilt stricken sobbing with my head on the floor
stop a baby's breath and a shoe full of rice (no)

RIFF C
CHORUS:

I can't be held responsible
'cause she was touching her face
I won't be held responsible
she fell in love in the first place

RIFF B
BRIDGE:

for the life of me, I cannot remember
what made us think that we were wise and we didn't compro-mise
for the life of me,  I cannot believe
we'd ever die for these sins we were merely freshmen


RIFF B
VERSE 2:

my best friend took a week's vacation to forget her
his girl took a week's worth of valium and slept
and now he's guilt stricken sobbing with his head on the floor
thinks about her now and how he never really wept, he says
RIFF C
CHORUS

RIFF B
BRIDGE 

REPEAT 2
SOLO

RIFF C
VERSE 3

we've tried to wash our hands of all of this
we never talk of our lacking relationships
and how we're guilt stricken sobbing with our heads on the floor
we fell through the ice, when we tried not to slip, we'd say it...

RIFF B
CHORUS

RIFF B
BRIDGE REPEAT AND FADE

 
Comments