Verve - The Drugs Dont Work Chords & Tabs

 

The Drugs Dont Work Chords & Tabs

Verve Chords & Tabs

Version: 2 Type: Bass Tab 0 ratings
1 star 2 stars 3 stars 4 stars 5 stars
comments

The Drugs Dont Work Bass Tab

   
  BTAB: The Drugs Don't Work
Artist: The Verve
 Album: Urban Hymns
Author: Rattman (jratt0@hotmail.com)

**Padrino's Bass Tab Exclusive!**

Another Easy yet good Verve Song.

Verse:
G------------------------------
D------------------------------
A-3-2-0-------------2--3-3-2-3-
E-------0-0-0-3-3-3------------
[ Tab from: http://www.guitartabs.cc/tabs/v/verve/the_drugs_dont_work_btab_ver_2.html ]
Chorus(also the "if you want a show" sections):
G-----------------------------------------------------
D-----------------------------------------------------
A-3-3-3-3-3-3-3-3-2-2-2-2-2-2-2-2-2-2-2-2-2-2--3--2--3
E-----------------------------------------------------

Bridge:
G-------------------------
D-------------------------
A-------------------------
E-1-1-1-0-0-0-4-4-4-3-3-3-



Taken from Padrino's Bass Tab Archive: http://members.xoom.com/jszalma/
Comments