Verve - Lucky Man Chords & Tabs

 

Lucky Man Chords & Tabs

Verve Chords & Tabs

Version: 2 Type: Bass Tab 0 ratings
1 star 2 stars 3 stars 4 stars 5 stars
comments

Lucky Man Bass Tab

  BTAB: Lucky Man
Artist: The Verve
 Album: Urban Hymns
Author: Rattman (jratt0@hotmail.com)

**Padrino's Bass Tab Exclusive!**

Is it just me or does the strings in this song sound like Bittersweet
Symphony?
[ Tab from: http://www.guitartabs.cc/tabs/v/verve/lucky_man_btab_ver_2.html ]
Verse:
G-----------
D-----------
A---------0-
E-3-3-2-2---

Pre-Chrous:
G---------------------------
D---------------------------
A-----------------0-0-0-0-0-
E-0-0-0-0-3-3-3-3-----------

Chorus:
G-----------
D-----0-0---
A---------0-
E-3-3-------


Taken from Padrino's Bass Tab Archive: http://members.xoom.com/jszalma/
Comments