Verve - Drugs Dont Work Chords & Tabs

 

Drugs Dont Work Chords & Tabs

Verve Chords & Tabs

Version: 1 Type: Chords 0 ratings
1 star 2 stars 3 stars 4 stars 5 stars
comments

Drugs Dont Work Chords

   
#----------------------------------PLEASE NOTE--------------------------------#
#This file is the author's own work and represents their interpretation of the#
#song. You may only use this file for private study, scholarship, or research.#
#-----------------------------------------------------------------------------#
Group: The Verve
Song: The drugs don't work (Original Demo)
From: Demo Tape 

The best version of this song is the original demo which is not affected 
by the sound engineer.The acoustic guitar is feeling good.
A moody song.Hope you enjoy it! 

Chords used:

C     032013
Am    002210
Em    022000
F/A   003213
G     320003
Gsus4 320013


   Hamming on during strum:    e.g. Just like this:
   C   032003 to 032013             Em:
       030013 to 032013                 0 0 0 
   Am  000210 to 002210                 0 0 0
       002200 to 002210                 0 0 0
   Em  002000 to 022000                 2 2 2
   F/A 003010 to 003210                 2p0h2


                                        0 0 0      
                                  

[ Tab from: http://www.guitartabs.cc/tabs/v/verve/drugs_dont_work_crd.html ]
This is the example of the Intro:                                     
 
  C           Gsus4                C
e-3---3---3-3-3-3-3-3---3--3-------3---3---3-3-3-- 3--3-3--------
B-1---1---1-1-1-1-1-1---1--1-------1---1---1-1-0h1 1--1-1--------
G-0---0---0-0-0-0-0-0---0--0-------0---0---0-0-0---0--0-0--------
D-2---2---2-2-0-0-0-0---0--0-------2---2---2-2-0---0--0-0--------
A-3---3---3-3-2-2-2-2---2--2-------3---3---3-3-2---2--2-2--------
E-0---0---0-0-3-3-3-3---3--3-------0---0---0-0-3---3--3-3--------
  Am                               Am
e-0---0---0-0-0---0--0-0-----------0---0---0-0-0---0--0-0-0-0--------
B-1---1---1-1-1---1--1-1-----------1---1---1-1-1---1--1-1-1-1--------
G-2---2---2-2-2---2--2-2-----------2---2---2-2-2---2--2-2-2-2--------
D-2---2---2-2-0h2-2--2-2-----------2---2---2-2-0h2-2--2-2-2-2--------
A-0---0---0-0-0---0--0-0-----------0---0---0-0-0---0--0-0-0-0--------
E-0---0---0-0-0---0--0-0-----------0---0---0-0-0---0--0-0-0-0--------


Intro:
C Am Em F/A Gsus4 C Gsus4 C 

Outro:
C Gsus4 C Gsus4 C

----------------------------------------------
Chorded by Jonny Lau 


Comments