Verve - Bittersweet Symphony Chords & Tabs

 

Bittersweet Symphony Chords & Tabs

Verve Chords & Tabs

Version: 7 Type: Tab 0 ratings
1 star 2 stars 3 stars 4 stars 5 stars
comments

Bittersweet Symphony Tab

Song-Bitter sweet symphony
Artist- The Verve
Tabbed by Tony Phung
Standard Tuning
S= slide

Intro/chorus
|---------5--------9----------8---------------------------------------||
|-9-12-9-----7-10-----10-14------9-13---------------------------------||
|---------------------------------------------------------------------||
|---------------------------------------------------------------------||
|---------------------------------------------------------------------||
|---------------------------------------------------------------------||
[ Tab from: http://www.guitartabs.cc/tabs/v/verve/bittersweet_symphony_tab_ver_7.html ]
Verse
|---------------------------------------------------------------------||
|---------------------------------------------------------------------||
|-----------------2---------------------------------------------------||
|----6-----4---4-------6----------------------------------------------||
|--7-----5-----------7------------------------------------------------||
|---------------------------------------------------------------------||

Outro
|-------5----5s9--5-----5---------------------------------------------||
|---------4----------4------------------------------------------------||
|--00-----------------------------------------------------------------||
|---------------------------------------------------------------------||
|---------------------------------------------------------------------||
|---------------------------------------------------------------------||

Structure
Intro: x 10
Verse: x 8
Chorus: x 6
Verse: x 8
Chorus: x 6
Verse: x 4
Chorus+ Verse: x 4
Chorus: x 7
Chorus+outro: x 3
Comments