Verve - Bittersweet Symphony Chords & Tabs

 

Bittersweet Symphony Chords & Tabs

Verve Chords & Tabs

Version: 6 Type: Tab 0 ratings
1 star 2 stars 3 stars 4 stars 5 stars
comments

Bittersweet Symphony Tab

-------------------------------------------------------------------------------
			     Bittersweet Symphony - The Verve
-------------------------------------------------------------------------------
Tabbed by:Kevin Mulder	
Email:Mulder_k2@hotmail.com	
This is the CORRECT way to play the intro.  All the others I've seen are wrong.
Tuning:Standard
[ Tab from: http://www.guitartabs.cc/tabs/v/verve/bittersweet_symphony_tab_ver_6.html ]
e|------------------10----10-9----9-----------------10----10-9----9--------|
B|--9-12-9-10----10----10------10---9-12-9-10----10----10------10----------|
G|------------11------------------------------11---------------------------|
D|-------------------------------------------------------------------------|
A|-------------------------------------------------------------------------|
E|-------------------------------------------------------------------------|
      Guitar 2
e|-------------------------------------------------------------------------|
B|-------------------------------------------------------------------------|
G|-------------------------------------------------------------------------|
D|-------------------------------------------------------------------------|
A|--7------------5------------------7-------------5------------------------|
E|---------7---------------5----------------7----------------5-------------|
Comments