Veruca Salt - Used To Know Her Chords & Tabs

 

Used To Know Her Chords & Tabs

Veruca Salt Chords & Tabs

Version: 2 Type: Bass Tab 0 ratings
1 star 2 stars 3 stars 4 stars 5 stars
comments

Used To Know Her Bass Tab

   
Used To Know Her (Louise Post)
Veruca Salt: Resolver (release: 2000/05/16)
tabbed by: cin123456789@xoommail.com-

Intro/Chorus: 
(0:09)  
G|----------------------------------------|
D|----------------------------------------|
A|---------5h7-7--------------------------|
E|-5h7-------------5h7----5-5--3--3-------|
			I'm not sure about the last part (3-3)


G|-----------------|
D|-----------------|
A|-----------------|
E|-2-2-2-2-2-2-2-2-|
<------PM--------->


G|-----|
D|-----|
A|-----|
E|-5/--| let ring


G|--------------------------------|
D|--------------------------------|
A|-----------------0-0-0--8-8-8---|
E|--0-0-0---8-8-8-----------------|

[ Tab from: http://www.guitartabs.cc/tabs/v/veruca_salt/used_to_know_her_btab_ver_2.html ]
G|----------------------------------------|
D|----------------------------------------|
A|---------5h7-7--------------------------|
E|-5h7-------------5h7----5-5--3-3--------|



G|-----------------|
D|-----------------|
A|-----------------|
E|-2-2-2-2-2-2-2-2-|
<------PM--------->

  
G|-----|
D|-----|
A|-----|
E|--5/--| let ring


G|---------------------------------|
D|---------------------------------|
A|----------------0-0-0---8--8--8--|
E|--0-0-0---8-8-8------------------|


G|------------------------------------|
D|------------------------------------|
A|---------5h7-7----------------------|
E|-5h7-------------5h7----5-5--3-3----|

G|-----------------|
D|-----------------|
A|-----------------|
E|-2-2-2-2-2-2-2-2-|
<------PM--------->

  
G|---|
D|---|
A|---|
E|-5/-| let ring


G|---------------------------------|
D|---------------------------------|
A|----------------0-0-0---8--8--8--|
E|--0-0-0---8-8-8------------------|

Comments