Vertigo - Alta Eago Chords & Tabs

 

Alta Eago Chords & Tabs

Vertigo Chords & Tabs

Version: 1 Type: Tab 0 ratings
1 star 2 stars 3 stars 4 stars 5 stars
comments

Alta Eago Tab

e]-----------------------------------------------------------------|
b]---------------------------------------------------------times 7-|
g]-----------------//----------------------------------------------|
d]-----------------//---8---8---8---8---9---9---9---9--------------|(intro+verse)
a]---8---8---8---8-//-6---6---6---6---6---6---6---6----------------|
e]-6---6---6---6---//----------------------------------------------|
[ Tab from: http://www.guitartabs.cc/tabs/v/vertigo/alta_eago_tab.html ]
e]---------------------------------------------------------|
b]---------------------------------------------------------|
g]---------------------------------------------------------|
d]-3-3-3-3-3--7-7-7-7-7--5-5-5-5-5--9-9--7-7--5-5----------|Chorus
a]-3-3-3-3-3--7-7-7-7-7--5-5-5-5-5--9-9--7-7--5-5----------|
e]-1-1-1-1-1--5-5-5-5-5--3-3-3-3-3--7-7--5-5--3-3----------|

e]-9-9-9-9-9--12-12-12-12-12--10-10-10-10-10--14-14-13-13-12-12-11--|
b]-9-9-9-9-9--12-12-12-12-12--10-10-10-10-10--14-14-13-13-12-12-11--|
g]-9-9-9-9-9--12-12-12-12-12--10-10-10-10-10--14-14-13-13-12-12-11--|(Solo)
d]------------------------------------------------------------------|
a]------------------------------------------------------------------|
e]------------------------------------------------------------------|

Order:
intro/verse  times 7
chorus       times 3
intro/verse  times 7
chorus       times 4  (play solo in this chorus)
intro/verse  times 7
Chorus       times 3
intro/verse  times 7
End,
Thats it, its all pretty easy!
Tabbed by Corbyn! Ozzy!
Comments