Vertical Leap - Nothing Chords & Tabs

 

Nothing Chords & Tabs

Vertical Leap Chords & Tabs

Version: 1 Type: Tab 0 ratings
1 star 2 stars 3 stars 4 stars 5 stars
comments

Nothing Tab

Nothing
x=mute

Intro
1------------------------------------------------------------
2------------------------------------------------------------
3------------------------------------------------------------
4------------------------------------------------------------
5---5-5-5--2-4-0--4-4-4--2-4-0---2-2-2--2-4-0--5-5-5-4-0-----
6---3-3-3---------2-2-2----------0-0-0----------------------- X2

Verse
1------------------------------------------------------------
2------------------------------------------------------------
3------------------------------------------------------------
4-------------------------------------7-6-7------------------
5---5-x-x-x-x--4-x-x-x-x--2-x-x-x-x---5-4-5-3----------------
6---3-x-x-x-x--2-x-x-x-x--0-x-x-x-x---------5---------------- X4
[ Tab from: http://www.guitartabs.cc/tabs/v/vertical_leap/nothing_tab.html ]
Chorus
1------------------------------------------------------------
2------------------------------------------------------------
3------------------------------------------------------------
4------------------------------------------------------------
5---5-5-5--2-4-0--4-4-4--2-4-0---2----5-5-5-4-0-0------------ 
6---3-3-3---------2-2-2----------0-X8------------------------ X2

Solo
1---0-0-4-0-5-0-7-0-5-0-4-0-2-0-0-0-4-0-5-0-7-0-5-4-4-5-4-2-0-
2-------------------------------------------------------------
3-------------------------------------------------------------
4-------------------------------------------------------------
5-------------------------------------------------------------
6------------------------------------------------------------- X2 

Intro
Verse
Chorus
Intro 
Verse
Chorus
Intro
Solo
Intro
Chorus 
Intro
Bass Solo
Comments