Vertical Horizon - Youre A God Chords & Tabs

 

Youre A God Chords & Tabs

Vertical Horizon Chords & Tabs

Version: 4 Type: Tab 0 ratings
1 star 2 stars 3 stars 4 stars 5 stars
comments

Youre A God Tab

#----------------------------------PLEASE NOTE--------------------------------#
#This file is the author's own work and represents their interpretation of the#
#song. You may only use this file for private study, scholarship, or research.#
#-----------------------------------------------------------------------------#
#-- File created with Instab - http://www.pconline.com/~smcarey/instab.html --#
#-----------------------------------------------------------------------------#

Author/Artist: Vertical Horizon
Title: You're a God
Album: Everything You Want
Transcribed by: Mark
Email: fireincairo_@hotmail.com

Tuning = 1/2 step down. This should be pretty accurate. I even saw on Jay Leno and there was very little difference between what they played and what I have here. I'm more or less putt the chords and progressions. You can listen to the song for the number of strokes and that, it's easy. After the second vs it drops right into the bridge and after the bridge right into the 3rd vs without that little B sus chord like after the 1st vs. Have fun. This is for Mandy - I know I'm pathetic, but you guys should see her...DAMN!!
[ Tab from: http://www.guitartabs.cc/tabs/v/vertical_horizon/youre_a_god_tab_ver_4.html ]
-----------|-----------|-----------|--------0--|--3---3--------0--------|--x--
--------0--|--------0--|--------0--|--------0--|--3-----3------2--3p2---|--x--
--------4--|--------4--|--------4--|--------4--|--0-0-----0----2------2-|--x--
--------4--|--------4--|--------4--|--------4--|--0------------2--------|--x--
--2--2--x--|--------x--|--------x--|--------2--|--2------------0--------|--x--
-----------|--4--4-----|--2--2-----|--0--0-----|--3---------------------|--x--
 (Intro and 1st Vs.)                              (Pre-chorus) Twice - then   

-----------|-----------|-----------|--------0--|------------------------------
--------4--|--------4--|--------4--|--------0--|--5---------------------------
--------4--|--------4--|--------4--|--------1--|--4---------------------------
--------4--|--------4--|--------4--|--------2--|--4---------------------------
--2--2--x--|--------x--|--------x--|--------x--|--2---------------------------
-----------|--4--4-----|--2--2-----|--0--0-----|------------------------------
 Chorus (w/some distortion)   Play twice then end on this before 2nd vs.      

-----------|-----------|-------------|-----------|--3---3------0--------|--x--
--------4--|--------4--|--------0----|-----------|--3-----3----2-3p2----|--x--
------4----|------4----|------3---3--|--------1--|--0-0-----0--2-----2--|--x--
----4------|----4------|----4--------|------2----|--0----------2--------|--x--
--2--------|-----------|-------------|----2------|--2----------0--------|--x--
-----------|--4--------|--2----------|--0--------|--3-------------------|--x--
 2nd and 3rd vs.                                                              

-------------|---------|--------2-2-2-0-0--|--------0-0-0-0-2-----------------
--5---5------|--2------|--4--4--0-0-0-0-4--|--4--4--0-0-0-4-0-----------------
--6-----6----|--2------|--4--4-------------|--4--4----------------------------
--6-5-----6--|--2------|--4--4-------------|--4--4----------------------------
--4----------|--0------|--2--2-------------|--2--2----------------------------
-------------|---------|-------------------|----------------------------------
 Bridge (After 2nd chorus) This ends and immdiately starts 3rd vs. after 2xs  

Comments