Vertical Horizon - Youre A God Chords & Tabs

 

Youre A God Chords & Tabs

Vertical Horizon Chords & Tabs

Version: 3 Type: Tab 0 ratings
1 star 2 stars 3 stars 4 stars 5 stars
comments

Youre A God Tab

\"You\'re A God\"
Vertical Horizon
Tuning: 1/2 step down - trust me, this is correct.
Any comments or corrections can go to fireincairo_@hotmail.com

This is basically a rough idea of the chords in this song. Listen to it and you\'ll get the idea. I\'m 99% sure this is completely accurate. It works for me when I play it anyway. I\'m at work and don\'t have my guitar so I\'m doing this from memory; sorry for any mistakes. (This is for you Mandy - I know I\'m pathetic, but you guys should see her - Damn!!)

Intro and 1st verse:                                                                                                     Pre-Chorus: Twice then the palm muted part           (Palm Muted)

E ----------------------------------------------------------------------------------------------------------------------3--------3-------------0--------0---------------------x-------------
B ------------------0---------------------0---------------------0---------------------0------------------------------3--------------3----------2-------------2----------------x-------------
G ------------------4---------------------4---------------------4---------------------4----------------------------- 0-------------------------2------------------------------x-------------
D ------------------4---------------------4---------------------4---------------------4----------------------------- 0-------------------------2------------------------------x-------------
A -------2----2---------------------------x---------------------x---------------------x------------------------------2-------------------------0------------------------------x-------------
E ------------------------------4----4---------------2----2---------------0----0------------------------------------3---------------------------------------------------------x--------------
										       \"Never again......     no - o	

Chorus: The chorus is basically the same chords as the verse with some distortion and a change in the last chord. You can play it a couple of ways depending on what you like. I\'ll put the one I like first and another suggestion after that. Play with it and see what you think.
[ Tab from: http://www.guitartabs.cc/tabs/v/vertical_horizon/youre_a_god_tab_ver_3.html ]
E ---------------------------------------------------------------------------------0------------------------------------------------------------------------------------------------------------
B ---------------4---------------------4---------------------4---------------------0------------------------------------9------------------------------5-------------------------------------
G ---------------4---------------------4---------------------4---------------------1------or----------------------------9--------then------------------4-------------------------------------
D ---------------4---------------------4---------------------4---------------------x------------------------------------9------------------------------4------------------------------------
A ---2---2------x----------------------x---------------------x---------------------x------------------------------------7------------------------------2-------------------------------------
E --------------------------4----4---------------2----2----------------0----0-----------------------------0----0---------------------------------------------------------------------------
											If you have two guitars, the second one plays 
											the first chord of the vs. while this rings out
											then the vs. starts up again.

2nd and 3rd verses:

E -----------------------------------------------------------------------------------------------------------------------------------------------------------------------------------------------
B ----------------------------4--------------------------4--------------------------0----------------------------------------------------------------------------------------------------------
G ----------------------4--------------------------4--------------------------3----------3-----------------------------1----1---------------------------------------------------------------
D ----------------4--------------------------4---------------------------4----------------------------------------2---------------2----------------------------------------------------------
A -----------2------------------------------------------------------------------------------------------------2--------------------------------------------------------------------------------
E --------------------------------------4--------------------------2------------------------------------0--------------------------------------------------------------------------------------


Break: The C#m chord has some little riff with it, but I can\'t think of it off hand. I don\'t think it\'s necessary, but what do I know?
Play twice then right into the third vs.
E ------4---------0------------------------2---2---2---0---0-----------------------0---0---0---0---2------------------------------------------------------------------------------------
B ------5---------2------------------------0---0---0---0---4-----------------------0---0---0---4---0------------------------------------------------------------------------------------
G ------6---------2---------4--------4--------------------------------4--------4------------------------------------------------------------------------------------------------------------
D ------6---------2---------4--------4--------------------------------4--------4------------------------------------------------------------------------------------------------------------
A ------4---------0---------2--------2--------------------------------2--------2-------------------------------------------------------------------------------------------------------------
E ----------------------------------------------------------------------------------------------------------------------------------------------------------------------------------------------

There ya go...you guys can figure out the words, they\'re easy.
Comments