Vertical Horizon - Youre A God Chords & Tabs

 

Youre A God Chords & Tabs

Vertical Horizon Chords & Tabs

Version: 2 Type: Chords 0 ratings
1 star 2 stars 3 stars 4 stars 5 stars
comments

Youre A God Chords

   
Song: You're a god
Artist: Vertical Horizon
CD: Everything You Want 
Transcribed by Chris Dupont

If you want to play it the easy way, play with capo on third fret, and play the chords in the parentheses (...).

Verse 1:
(G)            (Em)
Bb              Gm                  
I gotta be honest I think you know
(D)                       (C)
F                          Eb
We're covered in lies and that's okay.
(G)                    (Em)
Bb                      Gm
But somewhere beyond this I know
(D)                  (C)
F                     Eb
I hope I can find the words to say


Pre-Chorus:
(Eb)  (F)
F#    Ab
Never again, no
(Eb)      (F)
F#        Ab
No, never again

[ Tab from: http://www.guitartabs.cc/tabs/v/vertical_horizon/youre_a_god_crd_ver_2.html ]
Chorus:
(G)                   (Em)
Bb                     Gm 
'Cause you're a god and I am not 
  (D)                 (C) 
   F                   Eb
And I just thought that you would know
(G)             (Em)         (D)                (C)       (G2)
Bb               Gm           F                  Eb        Bb2
You're a god and I am not and I just thought I'd let you go


Verse 2 (same as verse 1)
Pre chorus 
Chorus

Instrumental:

Without capo:
  C5       Ab5    Bb5           Bb5    
e-4-3------------------------------------------------------------]
b-----5-5-3------------------------------------------------------]
g-----------6--6-------8--6--5-------6--5--8---------------------]
d------------------6---x--x--x---6---x--x--x---------------------]
a------------------x---8--6--5---x---6--5--8---------------------]
e------------------6-------------6-------------------------------]

With capo:
  A5       F5    G5           G5    
e-1-0------------------------------------------------------------]
b-----2-2-0------------------------------------------------------]
g-----------3--3-------5--3--2-------3--2--5---------------------]
d------------------3---x--x--x---3---x--x--x---------------------]
a------------------x---5--3--2---x---3--2--5---------------------]
e------------------3-------------3-------------------------------]

This riff is played TWICE.

Then play verse 3(same chords AND words as verse 1)
And after thet play the chorus 2x.

End:
(G2)
Bb2.....(let ring)
(G)
Bb...........(on acoustic guitar)
Comments