Vertical Horizon - Youre A God Chords & Tabs

 

Youre A God Chords & Tabs

Vertical Horizon Chords & Tabs

Version: 2 Type: Bass Tab 0 ratings
1 star 2 stars 3 stars 4 stars 5 stars
comments

Youre A God Bass Tab

Vertical Horizon
You're a God

//--------------// Just Listen to the CD for the "BEAT" \\---------------\\

Standard Tuning (EADG)

Intro
|------------------------------------------------------------|
|------------------------------------------------------------|
|---2-2-2-2-2-2-2-2------------------------------------------|
|--------4-4-4-4-4-4-4-4---2-2-2-2-2-2-2-2---0-0-0-0-0-0-0-0-|

I've got to be honest. . . . . . . . . . . .
|------------------------------------------------------------|
|------------------------------------------------------------|
|---2-2-2-2-2-2-2-2------------------------------------------|
|--------4-4-4-4-4-4-4-4---2-2-2-2-2-2-2-2---0-0-0-0-0-0-0-0-|

Never again no. . . . .  . . . .
|------------------------------------------------------------|
|------------------------------------------------------------|
|------------------------------------------------------------|
|--------3-3-3-3-3-3-3-3------5-5-5-5-5-5-5-5----------------|

[ Tab from: http://www.guitartabs.cc/tabs/v/vertical_horizon/youre_a_god_btab_ver_2.html ]
Chorus
|------------------------------------------------------------|
|------------------------------------------------------------|
|---2-2-2-2-2-2-2-2------------------------------------------|
|--------4-4-4-4-4-4-4-4---2-2-2-2-2-2-2-2---0-0-0-0-0-0-0-0-|

But I've been unable. . . . . . . .
|------------------------------------------------------------|
|------------------------------------------------------------|
|---2-2-2-2-2-2-2-2------------------------------------------|
|--------4-4-4-4-4-4-4-4---2-2-2-2-2-2-2-2---0-0-0-0-0-0-0-0-|

Chorus
|------------------------------------------------------------|
|------------------------------------------------------------|
|---2-2-2-2-2-2-2-2------------------------------------------|
|--------4-4-4-4-4-4-4-4---2-2-2-2-2-2-2-2---0-0-0-0-0-0-0-0-|


|------------------------------------------------------------|
|------------------------------------------------------------|
|---4-4-4-4-4-4-4-4------------------------------------------|
|------------5-5-5-5-5-5-5-5-5----7-7-7-7-7-7-7-7------------|


//--------// Hi to all local bands in Butuan specially to MUDFLOW \\-------\\
//--------// From Harold Chiang, Regards to my band members \\-------------\\
Comments