Vertical Horizon - Youre A God Chords & Tabs

 

Youre A God Chords & Tabs

Vertical Horizon Chords & Tabs

Version: 1 Type: Bass Tab 0 ratings
1 star 2 stars 3 stars 4 stars 5 stars
comments

Youre A God Bass Tab

-----------------------------------------------------------------------------
                      Vertical Horizon- Your a God
-----------------------------------------------------------------------------
Standard Tuning- EADG


Intro/verse/chorus:

G---------------------------------------------------------------------------|
D---------------------------------------------------------------------------|
A--2--2-2-2-2-2-2-----------------------------------------------------------|
E-----------------------4-4-4-4-4-4-4----4------2-2-2-2-2-2---2----0-0-0-0-0|

Before chorus:

No never again no!
[ Tab from: http://www.guitartabs.cc/tabs/v/vertical_horizon/youre_a_god_btab.html ]
G---------------------------------------------------------------------------|
D---------------------------------------------------------------------------|
A---------------------------------------------------------------------------|
E------3-3-3-3-3-3-3-3---5-5-5-5-5-5-5-5-5----------------------------------|

Bridge
                                                      Pang Pang!           Pang Pang!
G---------------------------------------------------------------------------|
D---------------------------------------------------------------------------|
A---------------------------------------------------------------------------|
E------5--5-5-5-5-5-5-5----3-3-3-3-3-3-3-3-3------------5-5---------------33|
Comments