Vertical Horizon - We Are Chords & Tabs


We Are Chords & Tabs

Vertical Horizon Chords & Tabs

Version: 2 Type: Tab 0 ratings
1 star 2 stars 3 stars 4 stars 5 stars

We Are Tab

We Are- Vertical Horizon
CD: Everything You Want
Tabber: Mitchell (
Tuning: Standard

This is my favourite song by Vertical Horizon, and I'm surprised to see that
nobody else has tabbed it. Ahwell... I have now :)
It works in standard, (with a lot of sharps) so maybe it's really down a half step
because all the other tabs I have by VH are like that.
Have fun with this GREAT song, there's only 3 easy riffs to it!!

Intro: guitar 2 does the slide thing in brackets
e ---------------------------------------------------------------------
B ----------------------------(1/3/1~)---------------------------------
G -5-5-5-5-5-5-5-5--3-3-3-3-3-3-3-3------------------------------------
D -5-5-5-5-5-5-5-5--3-3-3-3-3-3-3-3--3-3-3-3-3-3-3-3--6-6-6-6-6-6-6-6--
A -3-3-3-3-3-3-3-3--1-1-1-1-1-1-1-1--3-3-3-3-3-3-3-3--6-6-6-6-6-6-6-6--
E -----------------------------------1-1-1-1-1-1-1-1--4-4-4-4-4-4-4-4--
[ Tab from: ]
e ------------------6-----6-----6-------------------------8------8------8---
B -8-------8----------6-----6-----6------8-------8----------8------8------8-
G ---10------10---------8-----8------------10------10---------10-----10-----
D ------10------10-------------------10-------10------10--------------------
A --------------------------------------------------------------------------
E --------------------------------------------------------------------------

Chorus has same progression as intro, but last chord in it is A#5.

Bridge: listen to song for timing :)
e ----------------------------------------------------------------
B ----------------------------------------------------------------
G ----------------------------------------------------------------
D -6--6-6--7--7-7--9--9-9-9-9-9-----6--6-6--7--7-7--9--9-9-9-9-9--
A -6--6-6--7--7-7--9--9-9-9-9-9-----6--6-6--7--7-7--9--9-9-9-9-9--
E -4--4-4--5--5-5--7--7-7-7-7-7-----4--4-4--5--5-5--7--7-7-7-7-7--

Chords: F5: 133xxx   G#5: 466xxx   A5: 577xxx   A#5: x133xx   B5: 799xxx   C5: x355xx

Tab originally from: