Vertical Horizon - Everything You Want Chords & Tabs

 

Everything You Want Chords & Tabs

Vertical Horizon Chords & Tabs

Version: 4 Type: Chords 0 ratings
1 star 2 stars 3 stars 4 stars 5 stars
comments

Everything You Want Chords

   
От: for www.ultimate-guitar.com 
Кому: 
Тема: New Tabs
Дата: 3 июня 2000 г. 19:07

Vertical Horizon, Everything You Want.
 Tabbed by Brian Bost, BrianMatthewsBnd@aol.com.
  
TUNED DOWN 1/2 A STEP!!!

Intro:

Am Em
Somewhere there's speaking

Bm C
Its Already coming in

( Continue through verse )


Chorus
[ Tab from: http://www.guitartabs.cc/tabs/v/vertical_horizon/everything_you_want_crd_ver_4.html ]
e--0--3--0--x----0--3------------------------------
B--1--3--5--3----1--3--3--1------------------------
G--2--0--4--0----2--0--4--0------------------------
D--2--0--2--4----2--0--4--2------------------------
A--0--2--2--5----0--2--2--3------------------------
E-----3-----x-------3------------------------------

e-0--3--0--x--0--3--2h3--3-------------------------
B-1--3--5--3--1--3--3----3-------------------------
G-2--0--4--0--2--0--2----0-------------------------
D-2--0--2--4--2--0--0----2-------------------------
A-0--2--2--5--0--2-------3-------------------------
E----3-----x-----3---------------------------------


Bridge


Em C
But you'll just sit tight

C 
And Watch it undwind

Em D C

It's only what you're  waiting for

Em C
And you'll just be fine

Em C
With all your time

Em D C
It's only what you're waiting for
 
:: Ultimate Guitar Archive :: 
http://www.ultimate-guitar.com 

Comments