Vertical Horizon - Best I Ever Had Chords & Tabs

 

Best I Ever Had Chords & Tabs

Vertical Horizon Chords & Tabs

Version: 1 Type: Tab 0 ratings
1 star 2 stars 3 stars 4 stars 5 stars
comments

Best I Ever Had Tab

Vertical Horizon - Best I Ever Had
      

Intro:


e--3----3----3----3----x--
A--3----3----3----3----3--
D--0----0----0----0----2--
G--0----2----0----0----0--
B--x----0----3----x----x--
E--3----x----x----3----2--

Verse:
e--3----3----3----3----x--
A--3----3----3----3----3--
D--0----0----0----0----2--
G--0----2----0----0----0--
B--x----0----3----x----x--
E--3----x----x----3----2--

PreChorus:( )=Second time only
e--0----0----(x)--
A--1----0----(3)--
D--2----0----(2)--
G--2----2----(0)--
B--0----2----(x)--
E--x----0----(2)--
[ Tab from: http://www.guitartabs.cc/tabs/v/vertical_horizon/best_i_ever_had_tab.html ]
Chorus:
e--3----3----3----3----x----0--
A--3----3----3----3----3----0--
D--0----0----0----0----2----0--
G--0----2----0----0----0----2--
B--x----0----3----x----x----2--
E--3----x----x----3----2----0--

Bridge:
e--1----3----0----0----0--
A--1----0----1----0----1--
D--1----0----0----0----2--
G--3----0----2----2----2--
B--3----2----3----2----0--
E--1----3----0----x----x--

e--1----3----0----1--
A--1----0----0----1--
D--1----0----0----1--
G--3----0----2----3--
B--3----2----2----3--
E--1----3----0----1--

e--1----3----0----0----0--
A--1----0----1----0----1--
D--1----0----0----0----2--
G--3----0----2----2----2--
B--3----2----3----2----0--
E--1----3----0----x----x--

e--3----1--
A--0----1--
D--0----1--
G--0----3--
B--2----3--
E--3----1--

End Song On:
e--3--
A--3--
D--0--
G--0--
B--x--
E--3--
Comments