Verse 3 - Just Wanted To Say Chords & Tabs

 

Just Wanted To Say Chords & Tabs

Verse 3 Chords & Tabs

Version: 2 Type: Tab 0 ratings
1 star 2 stars 3 stars 4 stars 5 stars
comments

Just Wanted To Say Tab

Band= Verse 3 Just Wanted to Say
Marc Leist


         hey if you want to downloadin this song go to here http://www.geocities.com/dwignut/home


       rythm not shown just the chords
      E-6--------4-------3------2-----------------------------------------------|
      B-6--------4-------3------2-----------------------------------------------|
      G-7--------5-------3------3-----------------------------------------------|
      D-8--------6-------5------4-----------------------------------------------|
      A-8--------6-------5------4-----------------------------------------------|
      E-6--------4-------3------2-----------------------------------------------|

       those chords are played threw the whole thing other then the bridge

          solo


      E----------------------6---------------------------6--6--6-------6--6--6---|
      B--------------------------------------6-----------6--6--6-------6--6--6---|
      G-------6---------8b------8b(10)r6-8b-----8~---8b-----------8b-------------|
      D--S8---------8------------------------------------------------------------|
      A--------------------------------------------------------------------------|
      E--------------------------------------------------------------------------|
[ Tab from: http://www.guitartabs.cc/tabs/v/verse_3/just_wanted_to_say_tab_ver_2.html ]
      E--------------------------------------6-9p6---6-9p6---6-9p6---6-9p6---6---|
      B--------------------------------------------9-------9-------9-------9-----|
      G--8b(10)r--8b(10)r--8b(10)r--8b(10)r--------------------------------------|
      D--------------------------------------------------------------------------|
      A--------------------------------------------------------------------------|
      E--------------------------------------------------------------------------|

      E--8p4---4-8p4---6-9p4---8p4---4-6p3---3-6p3---3-6p3---3-6p3---3-----------|
      B------6-------6-------6-----6-------4-------4-------4-------4-------------|
      G--------------------------------------------------------------------------|
      D--------------------------------------------------------------------------|
      A--------------------------------------------------------------------------|
      E--------------------------------------------------------------------------|


      E-14p9----9-14p9----9-16p11----11-16p11----11--18~-------------------------|
      B------11--------11---------13----------13---------------------------------|
      G--------------------------------------------------------------------------|
      D--------------------------------------------------------------------------|
      A--------------------------------------------------------------------------|
      E--------------------------------------------------------------------------|


        bridge chords
      E-6--------4-------------2------------------------------------------------|
      B-6--------4-------------2------------------------------------------------|
      G-7--------5-------------3------------------------------------------------|
      D-8--------6-------------4------------------------------------------------|
      A-8--------6-------------4------------------------------------------------|
      E-6--------4-------------2------------------------------------------------|

       those chords are played threw the whole thing other then the bridge


 yo later, email if you want more of my songs snitzpie@juno.com
Comments