Vermelho Barao - O Poeta Esta Vivo Chords & Tabs

 

O Poeta Esta Vivo Chords & Tabs

Vermelho Barao Chords & Tabs

Version: 1 Type: Bass Tab 0 ratings
1 star 2 stars 3 stars 4 stars 5 stars
comments

O Poeta Esta Vivo Bass Tab

O Poeta Está Vivo
Barão Vermelho
=========================================================

Transcrito por:
Eric Lemes de Godoy Cintra
Mogi das Cruzes / SP / Brasil
e-mail: ericlemes@brasmail.com.br


G --------------------------------------------------------
D --------------------------------------------------------
A ----3/5-------------------------------------------------
E --------------------------------------------------------

No início é feito apenas esse slide, porém, da casa 3 até a 5, 
tocando novamente na 5.
[ Tab from: http://www.guitartabs.cc/tabs/v/vermelho_barao/o_poeta_esta_vivo_btab.html ]
G --------------------------------------------------------
D --------------------------------------------------------
A --5---5-5---5/0--------------------------5---5-5--------
E ------------------1---1-1-1---3---3-3-3-----------------

Esse é o trecho...

Note q o Ré (D), é tocado duas vezes....


G --------------------------------------------------------
D --------------------------------------------------------
A --6---6-6---5---5-5---5/1---1---1-1---3---3-3---5-------
E --------------------------------------------------------

É isso aí... durante o solo, o baixo apenas executa a 
primeira linha...

Comments