Verdict - Elevation Point Notation Chords & Tabs

 

Elevation Point Notation Chords & Tabs

Verdict Chords & Tabs

Version: 1 Type: Tab 0 ratings
1 star 2 stars 3 stars 4 stars 5 stars
comments

Elevation Point Notation Tab

   
Official Website: http://verdict.enuke.net
Country of Origin: Australia
Band Members:
Vocals/Guitar: Drew Rickard
Guitar: Stuart Squire
Bass Guitar: Nick Gunsser
Drums: Brayden Guareschi

-------------------------------------------------------------------------------
			     Elevation Point Notation - Verdict
-------------------------------------------------------------------------------
Tabbed by: Drew Rickard
Email: drew@ncable.net.au

Tuning: Normal (E,A,D,G,B,E)

INTRO/MAIN RIFF:

E|-------------------------------------------------------------|
B|-------------------------------------------------------------|
G|-------5--------------5--------------2--------------2--------|
D|-----7---5-7-5------7---5-7-5------4---2-4-2------4---2-4-2--|
A|-5-5------------5-5------------2-2------------2-2------------|
E|-------------------------------------------------------------|

VERSE:
   A         G         A         G
E|-------------------------------------------------|
B|-5-55-5-555--3-33-3-333--5-55-5-555--3-33-3-333--|
G|-6-66-6-666--4-44-4-444--6-66-6-666--4-44-4-444--|
D|-7-77-7-777--5-55-5-555-7-77-7-777--5-55-5-555--|
A|-7-77-7-777--5-55-5-555--7-77-7-777--5-55-5-555--|
E|-5-55-5-555--3-33-3-333--5-55-5-555--3-33-3-333--|

   Fm        Em7       Fm        Em7
E|-------------------------------------------------|
B|-------------------------------------------------|
G|-2-22-2-222--0-00-0-000--2-22-2-222--0-00-0-000--|
D|-4-44-4-444--0-00-0-000-4-44-4-444--0-00-0-000--|
A|-4-44-4-444--2-22-2-222--4-44-4-444--2-22-2-222--|
E|-2-22-2-222--0-00-0-000--2-22-2-222--0-00-0-000--|

CHORUS:
   Em   Dm/Em  Dm        Em   Dm/Em  Bm   Dm
E|-7777-5/777--55555555--7777-5/777--2222-5555--|
B|-8888-6/888--66666666--8888-6/888--3333-6666--|
G|-9999-7/999--77777777--9999-7/999--4444-7777--|
D|-9999-7/999--77777777--9999-7/999--4444-7777--|
A|-7777-5/777--55555555--7777-5/777--2222-5555--|
E|----------------------------------------------|
[ Tab from: http://www.guitartabs.cc/tabs/v/verdict/elevation_point_notation_tab.html ]
BRIDGE:
   D         Bm        E         G
E|-55555555--22222222--77777777--1010101010101010--|
B|-77777777--33333333--99999999--1212121212121212--|
G|-77777777--44444444--99999999--1212121212121212--|
D|-77777777--44444444--99999999--1212121212121212--|
A|-55555555--22222222--77777777--1010101010101010--|
E|-------------------------------------------------|

ACOUSTIC SOLO (OVER BRIDGE):
   D              D              Bm            Bm
E|------------------------------------------------------------------|
B|------------------------------------------------------------------|
G|---------5--------------5--------------2-------------2------------|
D|-----5-7---7-5------5-7---7-5------2-4---4-2-----2-4---4-2--------|
A|-5/7------------5/7------------2/4-----------2/4------------------|
E|------------------------------------------------------------------|



   Em             E              G                G
E|------------------------------------------------------------------|
B|------------------------------------------------------------------|
G|---------7--------------7----------------9----------------9-------|
D|-----7-9---9-7------7-9---9-7-------9-11---11-9------9-11---11-9--|
A|-7/9------------7/9------------9/11-------------9/11--------------|
E|------------------------------------------------------------------|

   D               D                Bm             Bm
E|----------8---------------8---------------5--------------5--------|
B|-----8-10---10-8-----8-10---10-8------5-7---7-5------5-7---7-5----|
G|-7/9-------------7/9--------------4/6------------4/6--------------|
D|------------------------------------------------------------------|
A|------------------------------------------------------------------|
E|------------------------------------------------------------------|

   E                   E
E|------------10------------------10------------|
B|------10-12----12-10------10-12----12-10------|
G|-9/11----------------9/11---------------------|
D|----------------------------------------------|
A|----------------------------------------------|
E|----------------------------------------------|

   G                     G
E|-------------13--------------------13---------|
B|-------13-15----15-13--------13-15----15-13---|
G|-12/14-----------------12/14------------------|
D|----------------------------------------------|
A|----------------------------------------------|
E|----------------------------------------------|
Comments