Verdena - Viba Chords & Tabs

 

Viba Chords & Tabs

Verdena Chords & Tabs

Version: 1 Type: Bass Tab 0 ratings
1 star 2 stars 3 stars 4 stars 5 stars
comments

Viba Bass Tab

   
Verdena
VIBA
Intro+Strofe
G|---------------------------------------------------------------------------------------
D|---------------------------------------------------------------------------------------
A|---------------------------------------------------------------------------------------
E|8-8-8-8-8-8-8-8-8-8-0-0-0-0-0-0-3-3-3-3-3-10-8-8-8-8-8-8-8-8-8-0-0-0-0-0-10-10-10-10-10   

Ritornello
G|----------------------------------------------------------------
D|----------------------------------------------------------------
A|----------------------------------------------------------------
E|3-3-3-3-3-3-3-0-0-0-0-0-0-0-/8-8-8-8-8-8-8-10-10-10-10-10-10-10-  
[ Tab from: http://www.guitartabs.cc/tabs/v/verdena/viba_btab.html ]
"Cosi vicina" a me  fino a "Io volo"
G|-----------------------------------------
D|-----------------------------------------
A|3-3-3-3-3-3-3-3-7-7-7-7-7-5-5-5-5-3-3-3-3
E|-----------------------------------------

insieme alla chitarra con il wah-wah
G|--------------------------------------
D|--------------------------------------
A|5-5-5-7-5-5-5-7-5-5-5-7-5-5-7-5-5-5-7/    
E|--------------------------------------

Assolo
G|-------------------------------------------------------
D|-------------------------------------------------------
A|-------------------------------------------------------
E|-3-3-3-3-------3-3-3-3-----5-5-5-3---3-3-3-3---7-7-7-7-  

Assolo finale
G|---------------------------------------
D|---------------------------------------
A|3------3-------------------------------
E|---------------0------0------3----3---- 

/= slide
^= bend
x= armonica (queste note sfiorando solo le corde)

per suggerimenti o rimproveri scrivi a: gallottaluigi@tin.it 

Comments