Verdena - Piuma Chords & Tabs

 

Piuma Chords & Tabs

Verdena Chords & Tabs

Version: 1 Type: Bass Tab 0 ratings
1 star 2 stars 3 stars 4 stars 5 stars
comments

Piuma Bass Tab

VERDENA - PIUMA 

BASS TAB



Non c'è più un immagine

ma sento che la vorrei con me

lo sai che c'è

io penso che ci riuscirei

1|---------------------------------------------------------------------------|
2|---------------------------------------------------------------------------|
3|-0---0----0---0---0---0--4--5--5----9---9-/-7---7---7---7---7-----4--5--5--|
4|---------------------------------------------------------------------------|
       qualcuno dentro ai sensi miei qualcosa che si posa in fondo dentro me




  Dentro non c'è io sento lei


1|-----------------------------------------------------|
2|-----------------------------------------------------|
3|-----------------------x/19----------------------4-5-|
4|-----------------------------------------------------|
   poi affondo nel vuoto che io giuro che c'è

1|----------------------------------------------------------|
2|----------------------------------------------------------|
3|-------------/7-----7--7---7--7--4--5--5------5---7-5-7-9-|
4|----------------------------------------------------------|
   penso a come sei e a come tutto urla in te

1|-----------------------------------|
2|-----------------------------------|
3|-5---5----7--7---7----7--4--5--5---|
4|-----------------------------------|
   un sommergibile e giuro lo vorrei 
[ Tab from: http://www.guitartabs.cc/tabs/v/verdena/piuma_btab.html ]
1|---------------------------------------------------------------------------|
2|---------------------------------------------------------------------------|
3|-0---0----0---0---0---0--4/17-17----9---9-/-7---7---7---7---7-----4--5--5--|
4|---------------------------------------------------------------------------|
       il vuoto dentro ai sensi miei e sento che sei tutto quello  che vorrei

1|---------------------------------------------|
2|---------------------------------------------|
3|-5/7---/12-12-9-9-7-7----4--5--5--5--5--5--5-|
4|---------------------------------------------|
                          che vorrei 

1|-------------------------------------------------------------------------|
2|-------------------------------------------------------------------------|
3|-7-7--5-5--4-4-5-5---7-7--5-5--4-4-5-5----12--14/1112--5----------------|
4|----------------------------------------------------------5---7997-7997--|





Mi sento invincibile

E sento che ti vorrei con me

Lo sai che puoi 

Io penso che ci riuscirei


1|---------------------------------------------------------------------------|
2|---------------------------------------------------------------------------|
3|-0---0----0---0---0---0--4--5--5----9---9-/-7---7---7---7---7-----4--5--5--|
4|---------------------------------------------------------------------------|
       qualcuno dentro ai sensi miei qualcosa che si posa in fondo dentro me

1|----------------------------------------------------|
2|----------------------------------------------------|
3|--4--5--5--5/17x----------5/17x-----------5/17x--|
4|----------------------------------------------------|
   Dentro me        Dentro me        Dentro me

  

Chiusura:
1|-------------|
2|-------------|
3|-------------|
4|-0-----------|lasciato suonare x una decina di secondi


Per commenti o correzioni la mia mail è fleafly_@libero.it
Comments